Song name
# A B C D E F G H I J K L M N O P Q R S T U V W X Y Z

Dust To Dust - Blue Sky Lie tab

rythem stays the same during hole song
e(--------1----1----1---------0-)
b(--------1----1----1---------1-)
g(--0-0-0---00---00---00----0---)
d(--2-2-2---22---22---22--2-----)
a(--2-2-2---22---22---22--------)
D(------------------------------)

lead verse/chorus
e(--1-1-1------------)
b(-----------------1-)
g(-------------0---0-)
d(-----------2---2---)
a(-------------------)
D(-------------------)

solo harmonics
e(-----7--12--------------------7-77---7---7-)
b(----7----------------7-7-----7-----5---5---)
g(---7------------7---7---7---7--------------)
d(--7------------7-7-7-----7-7---------------)
a(-----------7--7---7-------7----------------)
D(-------------------------------------------)
Tap to rate this tab
# A B C D E F G H I J K L M N O P Q R S T U V W X Y Z