Song name
# A B C D E F G H I J K L M N O P Q R S T U V W X Y Z

Dust To Dust - If I Was God tab

verse
e(--5-6-7---------5-6-4-8-----)
b(--------6-4/5-8---------4/5-)
g(----------------------------)
d(----------------------------)
a(----------------------------)
D(----------------------------)

chorus x2
e(---------------------------------------)
b(---------------------------------------)
g(---------------------------------------)
d(--8-8-8-8-5-5-00-4-44-8-8-8-8-5-5-0000-)
a(--8-8-8-8-5-5-00-4-44-8-8-8-8-5-5-0000-)
D(--8-8-8-8-5-5-00-4-44-8-8-8-8-5-5-0000-)
              pm..
post-chorus                (x2)                            (x11)
e(--------------------)(----------------------------------)(----)
b(--------------------)(----------------------------------)(----)
g(------10/6-----10/6-)(----------------------------------)(----)
d(--8-8-10/6-6-6-10/6-)(--8-8-10-10-10-10-6-6-10-10-10-10-)(--0-)
a(--8-8------6-6------)(--8-8-------------6-6-------------)(--0-)
D(--8-8------6-6------)(--8-8-------------6-6-------------)(--0-)
                                                            pm.
bridge   (x4)
e(----------------------)(----------------)
b(----------------------)(----------------)
g(----------------------)(----------------)
d(--0-01-1h2-1h2-22-4-5-)(--6-1-00000-5-6-)
a(--0-01-1h2-1h2-22-4-5-)(--6-1-00000-5-6-)
D(--0-01-1h2-1h2-22-4-5-)(--6-1-00000-5-6-)
                              pm.....
chorus(lead)/solo
e(--8-8-8--/6--/5--/3--/1--/3--11--15--18-)
b(----------------------------------------)
g(----------------------------------------)
d(----------------------------------------)
a(----------------------------------------)
D(----------------------------------------)
Tap to rate this tab
# A B C D E F G H I J K L M N O P Q R S T U V W X Y Z