Song name
# A B C D E F G H I J K L M N O P Q R S T U V W X Y Z

Dust To Dust - Mr Doe tab

Help us improve GuitareTab! Take a short survey!
chorus                  (x4)
e(-------------------)(------------------)
b(-------------------)(------------------)
g(-----5-5----5-5----)(--3-2-3-6-7-6-4-3-)
d(-----5-5----5-5----)(--3-2-3-6-7-6-4-3-)
a(--33-3-3-33-3-3-33-)(--3-2-3-6-7-6-4-3-)
D(-------------------)(------------------)
  pm..     ..     ..

verse
e(-----------------------)
b(-----------------------)
g(--77779999101010105555-)
d(--77779999101010105555-)
a(--55557777-8-8-8-83333-)
D(-----------------------)

verse(lead)
e(------------------8----------10/12-)
b(--10-8-7---10-9-8---10-8-7---------)
g(---------7-----------------7-------)
d(-----------------------------------)
a(-----------------------------------)
D(-----------------------------------)

solo x2
e(--7---7---5---5-3---5-2-------3---------5-)
b(----7-------7-----5-----4-5-4---7-8-7-5---)
g(------------------------------------------)
d(------------------------------------------)
a(------------------------------------------)
D(------------------------------------------)
Related for Mr Doe tab