Song name
# A B C D E F G H I J K L M N O P Q R S T U V W X Y Z

Dust To Dust - Pottersfeild tab

verse
e(------------------------------------------1-----)
b(----------------------------------------2---2---)
g(----3-2-------------3-2---------------3-------3-)
d(--------1-3-2-----------1-3-2-------------------)
a(--------------3-2-------------3-2---------------)
D(--1---------------1---------------1-0-----------)

verse continued
e(------------------------------------)
b(------------------------------------)
g(-----------10-9-3-5-4-3-----88---66-)
d(--0-0-0-0-110-9-3-5-4-3-1-1-88-0-66-)
a(--0-0-0-0-1-8-7-1-3-2-3-1-1-66-0-44-)
D(--0-0-0-0-1-----------3-1-1----0----)

chorus
e(-----------------------)(---------------------1-----)
b(-----------------------)(-------------------2---2---)
g(-----------------------)(--3-2------------3-------3-)
d(--6/8-6-666-8-888-0001-)(------1-3-2----------------)
a(------4-444-6-666-0001-)(------------3-2------------)
D(------4-444-6-666-0001-)(----------------0----------)

post-chorus
e(------------------)
b(------------------)
g(--2h3-2-----------)
d(--------1-4-3-0-1-)
a(--------1-4-3-0-1-)
D(--------1-4-3-0-1-)

bridge
e(---------------------------------------)
b(--9---8---6---5---4--------------------)
g(---------------------------------------)
d(----------------------1111111111111111-)
a(----------------------1111111111111111-)
D(----------------------1111111111111111-)
                      pm................
Tap to rate this tab
# A B C D E F G H I J K L M N O P Q R S T U V W X Y Z