Song name
# A B C D E F G H I J K L M N O P Q R S T U V W X Y Z

Dust To Dust - Superdope tab

intro/pre-chorus
e(--8---8-----)
b(----7---7---)
g(----------8-)
d(------------)
a(------------)
D(------------)

chorus
e(----------------------------------------)
b(----------------------------------------)
g(----------------------------------------)
d(--000h1-0h2-0h1-0h1-000h1-0h2-0h1-0h2/4-)
a(--000h1-0h2-0h1-0h1-000h1-0h2-0h1-0h2/4-)
D(--000h1-0h2-0h1-0h1-000h1-0h2-0h1-0h2/4-)

chorus continued
e(--------------------------------)
b(--------------------------------)
g(--------------------------------)
d(--000h1-0h2-0h1-0h1-000h1-0-4-2-)
a(--000h1-0h2-0h1-0h1-000h1-0-4-2-)
D(--000h1-0h2-0h1-0h1-000h1-0-4-2-)

verse
e(-----------------------)
b(-----------------------)
g(-----------------------)
d(--01-01-01-000h2/4-444-)
a(--01-01-01-000h2/4-444-)
D(--01-01-01-000h2/4-444-)

bridge
e(---------------------------------------)
b(---------------------------------------)
g(---------------------------------------)
d(-------------------0-4-0-2-0-1-0-2-0-1-)
a(-------------------0-4-0-2-0-1-0-2-0-1-)
D(--4444444444444444-0-4-0-2-0-1-0-2-0-1-)
  pm................

solo
e(--------------10-8-16-10-13-11h13-11h13-10-8h10-8h10-7-)
b(-------9-8-10------------------------------------------)
g(--7----------------------------------------------------)
d(----10-------------------------------------------------)
a(-------------------------------------------------------)
D(-------------------------------------------------------)

solo continued
e(--16h18-16h18----11-13-10-18b-20b-)
b(--------------16------------------)
g(----------------------------------)
d(----------------------------------)
a(----------------------------------)
D(----------------------------------)
Tap to rate this tab
# A B C D E F G H I J K L M N O P Q R S T U V W X Y Z