Song name
# A B C D E F G H I J K L M N O P Q R S T U V W X Y Z

Dust To Dust - Then You Die tab

Help us improve GuitareTab! Take a short survey!
verse
e(--8-9-8--8-9-8--8-9-8-----------12-)    
b(----------------------10-8-9-10----)
g(-----------------------------------)
d(-----------------------------------)
a(-----------------------------------)
D(-----------------------------------)

chorus                      chorus(lead)
e(-------------)(--------)(------)
b(-------------)(--------)(------)
g(--10-9--7--2-)(--5-2-5-)(--7---)
d(--10-9--7--2-)(--5-2-5-)(----5-)
a(--8--7--5--0-)(--3-0-3-)(------)
D(-------------)(--------)(------)

bridge
e(-----------------------------------)
b(-----------------------------------)
g(--55555555777777775555555522222222-)
d(--55555555777777775555555522222222-)
a(--33333333555555553333333300000000-)
D(-----------------------------------)
  pm................................

solo
e(--8-9-----------------------8-9-17-16-20-)
b(------9-8-6-5-5-8-5---6-5----------------)
g(--------------------7-----7--------------)
d(-----------------------------------------)
a(-----------------------------------------)
D(-----------------------------------------)

solo continued
e(--19h20-------------------)
b(--------20/18/17/15-17/18-)
g(--------------------------)
d(--------------------------)
a(--------------------------)
D(--------------------------)
Related for Then You Die tab