Song name
# A B C D E F G H I J K L M N O P Q R S T U V W X Y Z

Dust To Dust - Hate Love tab

verse
e(---------------------5/7---)
b(---------------------5/7---)
g(-----------6/8-------------)
d(--00-2-3-5-6/8-----------4-)
a(--00-2-3-5---------------4-)
D(--00-2-3-5-----4-4-6-----4-)

verse(lead)
e(--17-15----)
b(-----------)
g(--------17-)
d(-----------)
a(-----------)
D(-----------)

chorus
e(---------------------5/7---)(--------------------)
b(---------------------5/7---)(--------------------)
g(-----------6/8-------------)(--------------------)
d(--00-2-3-5-6/8-----------4-)(--1-001-001-4/5-6/8-)
a(--00-2-3-5---------------4-)(--1-001-001-4/5-6/8-)
D(--00-2-3-5-----4-4-6-----4-)(--1-001-001-4/5-6/8-)
  pm.. . . .     . . .     .

bridge
e(-----------------------------------)
b(-----------------------------------)
g(-----------------------------------)
d(--55665566112211221100110011001100-)
a(--55665566112211221100110011001100-)
D(--55665566112211221100110011001100-)

solo
e(--8-10-12-13-12-10-8-6/5---4-5---)
b(-------------------------6-----6-)
g(---------------------------------)
d(---------------------------------)
a(---------------------------------)
D(---------------------------------)

solo continued
e(--8-10-12-13-12-10-8-6/5---4-5--<5>-harmonic-)
b(-------------------------6-------------------)
g(---------------------------------------------)
d(---------------------------------------------)
a(---------------------------------------------)
D(---------------------------------------------)
Tap to rate this tab
# A B C D E F G H I J K L M N O P Q R S T U V W X Y Z