Song name
# A B C D E F G H I J K L M N O P Q R S T U V W X Y Z

Dusted - Property Lines tab

Intro/Chorus
E------------------------------------------------------!
B----3-3-1-0-1-----4-4-3-------6-------6------6------6-!
G----0-0-0-0-0-----------------------------------------!
D------------------------------------------------------!
A-------------/3-3--3-3---/6-6--6-6-6---6-6-6--6-6-6---!
E--3---------------------------------------------------!

Riff 1
E----------------------------------------------!
B----------------------------------------------!
G----------------------------------------------!
D------------------2-2-2-2-2-2-2-2-------------!
A-1-1-1-1-1-1-1-1--3-3-3-3-3-3-3-3-------------!
E-3-3-3-3-3-3-3-3--3-3-3-3-3-3-3-3-------------!


E-----------------------------------------------!
B-----------------------------------------------!
G-----------------------------------------------!
D-5-5-5-5-5-5-5-5-5-5-5-5-5-5-5-5-5-5-----------!
A-6-6-6-6-6-6-6-6-6-6-6-6-6-6-6-6-6-6-----------!
E-6-6-6-6-6-6-6-6-6-6-6-6-6-6-6-6-6-6-----------!

Riff 2
E-----------------------------------------------!
B-----------------------------------------------!
G-----------------------------------------------!
D-----------------------------------------------!
A-3-3-3-3-3-3-3-3-3-3-3-3-3-3-3-3---------------!
E-1-1-1-1-1-1-1-1-1-1-1-1-1-1-1-1---------------!

E-----------------------------------------------!
B-----------------------------------------------!
G-----------------------------------------------!
D-----------------------------------------------!
A-5-5-5-5-5-5-5-5-5-5-5-5-5-5-5-5---------------!
E-3-3-3-3-3-3-3-3-3-3-3-3-3-3-3-3---------------!

E-----------------------------------------------!
B-----------------------------------------------!
G-----------------------------------------------!
D-----------------------------------------------!
A-3-3-3-3-3-3-3-3-3-3-3-3-3-3-3-3---------------!
E-1-1-1-1-1-1-1-1-1-1-1-1-1-1-1-1---------------!

E--------------------------!
B----3----3----3--3-3-3----!
G--------------------------!
D--------------------------!
A-5-5--5-5--5-5---5-5-5----!
E-3-3--3-3--3-3---3-3-5----!


Bridge
E----------------------------------------------!
B----6---6----6----6------6----6----6----6-----!
G----------------------------------------------!
D----------------------------------------------!
A-8-8--8-8--8-8--8-8----6-6--6-6--6-6--6-6-----!
E----------------------------------------------!

E--------------------------------------!
B----6----6----6----6------------------!
G--------------------------------------!
D--------------------------------------!
A-8-8--8-8--8-8--8-8-------------------!
E--------------------------------------!

E--------------------------------------!
B--6-6-6-6-6--4-4-4-4-4----------------!
G--------------------------------------!
D--5-5-5-5-5--5-5-5-5-5----------------!
A--3-3-3-3-3--3-3-3-3-3----------------!
E--------------------------------------!

2x
E--------------------------------------!
B----8------8------8------8------------!
G--------------------------------------!
D--------------------------------------!
A-6-6--6-6-6--6-6-6--6-6-6-------------!
E--------------------------------------!


E--------------------------------------!
B----8------8------8------8------------!
G--------------------------------------!
D--------------------------------------!
A-8-8--8-8-8--8-8-8--8-8-8-------------!
E--------------------------------------!

Outro
E-----------------------------------------------!
B-----------------------------------------------!
G-----------------------------------------------!
D-----------------------------------------------!
A-3-3-3-3-3-3-3-3-3-3-3-3-3-3-3-3---------------!
E-1-1-1-1-1-1-1-1-1-1-1-1-1-1-1-1---------------!

E-----------------------------------------------!
B-----------------------------------------------!
G-----------------------------------------------!
D-----------------------------------------------!
A-5-5-5-5-5-5-5-5-5-5-5-5-5-5-5-5---------------!
E-3-3-3-3-3-3-3-3-3-3-3-3-3-3-3-3---------------!


Outro Chord hold
E---!
B---!
G---!
D-5-!
A-6-!
E-6-!

                     -Intro[x2]-
                     -Riff 1[x2]-
                     -Riff 2[x1]-
                     -Chorus [x2]-
                     -Riff 1[x2]-
                     -Riff 2[x1]-
                     -Chorus[x2]-
                     -Bridge[x1]-
                     -Chorus[x2]-
                     -Outro[x4]-
Tap to rate this tab
# A B C D E F G H I J K L M N O P Q R S T U V W X Y Z