Song name
# A B C D E F G H I J K L M N O P Q R S T U V W X Y Z

Duster - The Breakup Suite tab

http://en.wikipedia.org/wiki/Duster_(band)

Duster is an awesome Slowcore/Space Rock band from San Jose, CA. I couldn't find any tabs on here 
so I decided to make my own because their songs are very chill to play.

Both guitar parts are tuned to standard with a capo on 3rd.

Guitar 1 

Part 1
     Q    Q    Q    Q       Q    Q    Q    Q       Q    Q    Q    Q       Q    Q    Q    Q     
E||----------------------|----------------------|----------------------|----------------------|
B||----------------------|----------------------|----------------------|----------------------|
G||--0----0----0----0----|--0----0----0----0----|--0----0----0----0----|--0----0----0----0----|
D||--2----2----2----2----|--2----2----2----2----|--0----0----0----0----|--0----0----0----0----|
A||--3----3----3----3----|--0----0----0----0----|--2----2----2----2----|--2----2----2----2----|
E||----------------------|----------------------|--3----3----3----3----|--3----3----3----3----|


  Q    Q    Q    Q       Q    Q    Q    Q       Q    Q    Q    Q       Q    Q    Q    Q     
----------------------|----------------------|----------------------|----------------------|
----------------------|----------------------|----------------------|----------------------|
--0----0----0----0----|--0----0----0----0----|--0----0----0----0----|--0----0----0----0----|
--2----2----2----2----|--2----2----2----2----|--0----0----0----0----|--0----0----0----0----|
--3----3----3----3----|--0----0----0----0----|--2----2----2----2----|--2----2----2----2----|
----------------------|----------------------|--3----3----3----3----|--3----3----3----3----|

Part 2 - "Damn, I wish I was..."
  Q    Q    Q    Q       Q    Q    H           Q    Q    Q    Q       Q    Q    H         
----------------------|---------------------|----------------------|---------------------|
----------------------|---------------------|----------------------|---------------------|
------------5---------|------------3--------|------------5---------|------------3--------|
-------3---------3----|-------1-------------|-------3---------3----|-------1-------------|
--5-------------------|--3------------------|--5-------------------|--3------------------|
----------------------|---------------------|----------------------|---------------------|


  Q    Q    Q    Q       Q    Q    H           Q    Q    Q    Q       Q    Q    E  E  E  S S  
----------------------|---------------------|----------------------|-------------------------|
----------------------|---------------------|----------------------|-------------------------|
------------5---------|------------3--------|------------5---------|--3----3----3--3--3--3-0-|
-------3---------3----|-------1-------------|-------3---------3----|--1----1----1--1--1--1-2-|
--5-------------------|--3------------------|--5-------------------|--3----3----3--3--3--3-3-|
----------------------|---------------------|----------------------|-------------------------|


Then back to Part 1.

Guitar 2 - Just play and repeat this over Part 1

     Q    Q    Q    Q       Q    Q    Q    Q       W                   H        Q    E   E   
E||----------------------|----------------------|-------------------|-----------------------|
B||----------------------|----------------------|-------------------|-----------------------|
G||-------0--------------|-------0--------------|-------------------|-----------------------|
D||--2---------2----0----|----------------------|-------------------|-----------------------|
A||----------------------|--0---------3----5----|--2----------------|--L-------------3S--5--|
E||----------------------|----------------------|-------------------|-----------3-----------|




Duration Legend
---------------
W - whole
H - half
Q - quarter
E - 8th
S - 16th
T - 32nd
X - 64th
. - note dotted
|-n-|  - n-tuplets


Tablature Legend
----------------
L - tied note
x - dead note
g - grace note
(n) - ghost note
> - accentuded note
NH - natural harmonic
AH - artificial harmonic
TH - tapped harmonic
SH - semi harmonic
PH - pitch harmonic
h - hammer on
p - pull off
b - bend
br - bendRelease
pb - preBend
pbr - preBendRelease
brb - bendReleaseBend
\n/ - tremolo bar dip
\n - tremolo bar dive
-/n - tremolo bar Release up
/n\ - tremolo bar inverted dip
/n - tremolo bar return
-\n - tremolo bar Release down
S - shift slide
s - legato slide
/ -  slide into from below or out of upwards
\ -  slide into from above or out of downwards
~ - vibrato
W - wide vibrato
tr - trill
TP - tremolo picking
T - tapping
S - slap
P - pop
< - fade in
^ - brush up
v - brush down
Tap to rate this tab
 
# A B C D E F G H I J K L M N O P Q R S T U V W X Y Z