Song name
# A B C D E F G H I J K L M N O P Q R S T U V W X Y Z

Dustin Kensrue - I Believe chords

Highlighted       Show chord diagrams
Song: I Believe
Artist: Dustin Kensrue
Album: Please Come Home
Tabbed By: Caleb M.

Intro
e|---------------------------------------------------------------|
B|---------------------------------------------------------------|
G|---------------------------------------------------------------|
D|---------------------------------------------------------------|
A|-4-4-6-4-4-4-6-4-4-4-6-4-4-4-6-4-4-4-6-4-4-4-6-4-4-4-6-4-4-4-6-|
E|-2-2-2-2-2-2-2-2-2-2-2-2-2-2-2-2-2-2-2-2-2-2-2-2-2-2-2-2-2-2-2-|

Verse

e|-------------------------------------------------------------------|
B|-------------------------------------------------------------------|
G|-------------------------------------------------------------------|
D|-----------------------------------4-4-6-4-4-4-6-4-----------------|
A|-4-4-4-6-4-4-4-6-4-4-4-6-4-4-4-6-4-2-2-2-2-2-2-2-2-4-4-6-4-4-4-6-4-|
E|-2-2-2-2-2-2-2-2-2-2-2-2-2-2-2-2-2-----------------2-2-2-2-2-2-2-2-|

e|-------------------------------------------|
B|-4-4-4-4---6-------------------------------|
G|-4-4-4-4-6-6-------------------------------|
D|-6-6-6-6-6-6-4-4-6-4-4-4-6-4---------------|
A|-6-6-6-6-4-4-2-2-2-2-2-2-2-2-4-4-6-4-4-4-6-|
E|-4-4-4-4---------------------2-2-2-2-2-2-2-|

Seen your face in every child that smiles,
but I can't help but rejoice.
And I've heard the song called thunder,
but I knew it was your voice.
Touched the holes in your calloused hands,
stuck my fingers in your side.
oh I was six-feet-deep in doubt but
now I'm sure that you're alive

Chorus

         ebm7    Bbm             B         Gb          B         Gb Db
And it's safe to say we'll never know everything still blessings we receive.
         ebm7    Bbm          B            Gb
And it's safe to say I really don't know a thing,
      B        Db
still I choose to believe.

Verse 

Smelt the scent of angel sweet floating in the summer air.
I have breathed in deep the incense,
while the saints send up their prayers.

I have tasted now I see
oh I see that you are good.
And I have ate your perfect body,
and I have drank your blessed blood

Chorus

         ebm7    Bbm             B         Gb          B         Gb Db
And it's safe to say we'll never know everything still blessings we receive.
         ebm7    Bbm          B            Gb
And it's safe to say I really don't know a thing,
      B        Db   Gb  
still I choose to believe.

Bridge
            Abm                 B
And all the answers that I find,
             ebm7                 B
only take me so far down the line.
    Abm                   B
The tracks always give out
            e                   Db
yeah it's a leap from the lions mouth.

Ending Chorus

         Gb                                           B             Bm
And it's safe to say we'll never know everything still blessings we receive.
         Gb                   Db 
And it's safe to say I really don't know a thing,
      B        Bm     Gb     Gb7
still I choose to believe.


Chord forms used:

     ebm7    Bbm     B       Gb      Db    e   Abm   Bm   Gb7
E----6-------6---------------2------------------4----2----2----|
B----7-------6-------4-------2-------6----------4----3----2----|
G----6-------6-------4-------3-------6-----9----4----4----3----|
D----8-------8-------4-------4-------6-----9----6----4----2----|
A----6-------8-------2-------4-------4-----7----6----2----4----|
E------------6---------------2------------------4---------2----|

Tap to rate this tab
 
# A B C D E F G H I J K L M N O P Q R S T U V W X Y Z