Song name
# A B C D E F G H I J K L M N O P Q R S T U V W X Y Z

Dustin Lynch - Cowboys And Angels tab

Hey guys this is the tabliture of how I play this song, and it works best if you 
finger pick it. It's pretty accurate...accurate enough to play along with the 
song. The fret numbers are written as if the 3rd fret is 0 cause thats were the capo is. Enjoy!

Capo 3



Intro:
e----3---3---2-----------------|
B--0---0---3-----1---1---1---1-|
G-----------2--0---0---0---0---|
D---------0-----2---2---2---2--|
A---2---2-----3---3---3---3----|
E-3---3------------------------|

e----3---3---2-----------------|
B--0---0---3-----0---0---0---0-|
G-----------2--0---0---0---0---|
D---------0-----2---2---2---2--|
A---2---2-----2---2---2---2----|
E-3---3------------------------|



Verse 1: 
e---------------3---3---3---3-|
B----1---1-3--0---0---0---0---|
G--0---0----2-----------------|
D---2---2-0-------------------|
A-3---3--------2---2---2---2--|
E------------3---3---3---3----|

e---------------2---2---2---2-|
B----1---1-0--3---3---3---3---|
G--0---0-------2---2---2---2--|
D---2---2----0---0---0---0----|
A-3---3-----2-----------------|
E---------3-------------------|

e-----------------------------|
B----1---1-3----0---0---------|
G--0---0----2-0---0-----------|
D---2---2-0----2---2----------|
A-3---3------2---2------------|
E-----------------------------|

e---------------3---3---3---3-|
B----1---1-3--0---0---0---0---|
G--0---0----2-----------------|
D---2---2-0-------------------|
A-3---3--------2---2---2---2--|
E------------3---3---3---3----|



Verse 2:
e---------------3---3---3---3-|
B----1---1-3--0---0---0---0---|
G--0---0----2-----------------|
D---2---2-0-------------------|
A-3---3--------2---2---2---2--|
E------------3---3---3---3----|

e---------------2---2---2---2-|
B----1---1-0--3---3---3---3---|
G--0---0-------2---2---2---2--|
D---2---2----0---0---0---0----|
A-3---3-----2-----------------|
E---------3-------------------|

e-----------------------------|
B----1---1-3----0---0---------|
G--0---0----2-0---0-----------|
D---2---2-0----2---2----------|
A-3---3------2---2------------|
E-----------------------------|

e---------------3---3---3---3-|
B----1---1-3--0---0---0---0---|
G--0---0----2-----------------|
D---2---2-0-------------------|
A-3---3--------2---2---2---2--|
E------------3---3---3---3----|



Chorus
e------------2---2---0---0---0---0-|
B--0---0---3---3---0---0---0---0---|
G----1---1--2---2------------------|
D---2---2-0---0--------------------|
A-3---3-------------2---2---2---2--|
E-----------------3---3---3---3----|

e------------2---2
B--0---0---3---3-----0---0---0---0-|
G----1---1--2---2--0---0---0---0---|
D---2---2-0---0-----2---2---2---2--|
A-3---3-----------2---2---2---2----|
E----------------------------------|

e------------3---3---2---2---------|
B----1---1-0---0---3---3-----0---0-|
G--0---0------------2---2--0---0---|
D---2---2---------0---0-----2---2--|
A-3---3-----2---2---------2---2----|
E---------3---3--------------------|

e------------2---2-----------------|
B----0---0-3---3-----1---1---------|
G--0---0----2---2--0---0-----------|
D---2---2-0---0-----2---2----------|
A-2---2-----------3---3------------|
E----------------------------------|

e---------------3---3---3---3-|
B----1---1-3--0---0---0---0---|
G--0---0----2-----------------|
D---2---2-0-------------------|
A-3---3--------2---2---2---2--|
E------------3---3---3---3----|



Verse 3
e---------------3---3---3---3-|
B----1---1-3--0---0---0---0---|
G--0---0----2-----------------|
D---2---2-0-------------------|
A-3---3--------2---2---2---2--|
E------------3---3---3---3----|

e---------------2---2---2---2-|
B----1---1-0--3---3---3---3---|
G--0---0-------2---2---2---2--|
D---2---2----0---0---0---0----|
A-3---3-----2-----------------|
E---------3-------------------|

e-----------------------------|
B----1---1-3----0---0---------|
G--0---0----2-0---0-----------|
D---2---2-0----2---2----------|
A-3---3------2---2------------|
E-----------------------------|

e---------------3---3---3---3-|
B----1---1-3--0---0---0---0---|
G--0---0----2-----------------|
D---2---2-0-------------------|
A-3---3--------2---2---2---2--|
E------------3---3---3---3----|



To Chorus



Verse 4
e---------------3---3---3---3-|
B----1---1-3--0---0---0---0---|
G--0---0----2-----------------|
D---2---2-0-------------------|
A-3---3--------2---2---2---2--|
E------------3---3---3---3----|

e---------------2---2---2---2-|
B----1---1-0--3---3---3---3---|
G--0---0-------2---2---2---2--|
D---2---2----0---0---0---0----|
A-3---3-----2-----------------|
E---------3-------------------|

e-----------------------------|
B----1---1-3----0---0---------|
G--0---0----2-0---0-----------|
D---2---2-0----2---2----------|
A-3---3------2---2------------|
E-----------------------------|

e---------------3---3---3---3-|
B----1---1-3--0---0---0---0---|
G--0---0----2-----------------|
D---2---2-0-------------------|
A-3---3--------2---2---2---2--|
E------------3---3---3---3----|

e-----------------------------|
B----1---1-3----0---0---------|
G--0---0----2-0---0-----------|
D---2---2-0----2---2----------|
A-3---3------2---2------------|
E-----------------------------|

e---------------3--3----------|
B----1-----3--0--0------------|
G--0--------2-----------------|
D---2-----0-------------------|
A-3------------2--2-----------|
E------------3------3---------|
Tap to rate this tab
 
# A B C D E F G H I J K L M N O P Q R S T U V W X Y Z