Song name
# A B C D E F G H I J K L M N O P Q R S T U V W X Y Z

Dustin Lynch - Last Lap tab

-----------------------------------------------------------------------------
                             Last Lap  Dustin Lynch
-----------------------------------------------------------------------------

Tabbed by:dajoyal
E-mail:derekjoyal12@gmail.com

Tuning: Standard - EADGBe

e|-----------------------------------------------------|
B|-----------------8-5---------------------------------|
G|----10-9-10-9-10--(5)--------------------------------|
D|-----------------------------------------------------|
A|-----------------------------------------------------|
E|-----------------------------------------------------|

e|-----------------------------------------------------|
B|-----------------8-6---------------------------------|
G|----10-9-10-9-10--(5)--------------------------------|
D|-----------------------------------------------------|
A|-----------------------------------------------------|
E|-----------------------------------------------------|






************************************

| /   slide up
| \   slide down
| h   hammer-on
| p   pull-off
| ~   vibrato
| +   harmonic
| x   Mute note
| b   Bend
| ()  Optional
| pb  Pre-bend
| br  Bend release
| pbr Pre-bend release
| brb Bend release bend

************************************
Tap to rate this tab
 
# A B C D E F G H I J K L M N O P Q R S T U V W X Y Z