Song name
# A B C D E F G H I J K L M N O P Q R S T U V W X Y Z

Dustin Ohalloran - We Move Lightly tab

-------------------------------------------------------------------------------
			                      WE MOVE LIGHTLY - Dustin O'Halloran
-------------------------------------------------------------------------------
http://www.dustinohalloran.com/

"Like Crazy" OST
Tabbed by: lmaryl

Tuning: standard


Verse:
e|-------------------------------------------------|
B|---------------------------1---1---1-------------|
G|---1---1---1---1---1---1-1---1---1-----0---0---0-|
D|-3---3---3---3---3---3---------------1---1---1---|
A|-------------------------------------------------|
E|-------------------------------------------------|  X 4


Chorus 1:
e|---------------------------1---1---1-------------|
B|---2---2---2---2---2---2-2---2---2-----1---1---1-|
G|-3---3---3---3---3---3---------------1---1---1---|
D|-------------------------------------------------|
A|-------------------------------------------------|
E|-------------------------------------------------| X 2

e|-------------------------------------------------|
B|-------------------------------------------------|
G|---3---3---3---3---3---3---0---0---0---0---0---0-|
D|-5---5---5---5---5---5---1---1---1---1---1---1---|
A|-------------------------------------------------|
E|-------------------------------------------------|


Chorus 2:
e|---------------------------1---1---1-------------|
B|---2---2---2---2---2---1-2---2---2-----1---1---1-|
G|-3---3---3---3---3---3---------------1---1---1---|
D|-------------------------------------------------|
A|-------------------------------------------------|
E|-------------------------------------------------| 

e|-------------------------------------------------|
B|-------------------------------------------------|
G|---3---3---3---3---3---3---0---0---0---0---0---0-|
D|-5---5---5---5---5---5---1---1---1---1---1---1---|
A|-------------------------------------------------|
E|-------------------------------------------------|

e|---------------------------1---1---1-------------|
B|---2---2---2---2---2---1-2---2---2-----1---1---1-|
G|-3---3---3---3---3---3---------------1---1---1---|
D|-------------------------------------------------|
A|-------------------------------------------------|
E|-------------------------------------------------| 

e|-------------------------------------------------|
B|---------------------------4---4---4-------------|
G|---3---3---3---3---3---3-3---3---3-----0---0---0-|
D|-5---5---5---5---5---5---------------1---1---1---|
A|-------------------------------------------------|
E|-------------------------------------------------|


End:
e|----------------------------|
B|----------------------------|
G|---1---1---1---1---1---1----|
D|-3---3---3---3---3---3---3--|
A|----------------------------|
E|----------------------------|


Verse
Chorus 1
Verse
Chorus 2
Verse
Chorus 2
Verse
Chorus 2
Verse
End

Tap to rate this tab
# A B C D E F G H I J K L M N O P Q R S T U V W X Y Z