Song name
# A B C D E F G H I J K L M N O P Q R S T U V W X Y Z

Dusty Lee Dinkleman - Jamie Smiles tab

----------------------------------------------------------------------------
		     Jamie Smiles - Dusty Lee Dinkleman
----------------------------------------------------------------------------
Tabbed by: The_Don
Email: TBig.Don@googlemail.com

Tuning: Standard


Bm     -  X24432
A      -  X02220
E      -  022100
C#/Dbm -  X46654
F#/Gbm -  244222
D      -  XX0232
Dm     -  XX0231
D*     -  X57775
F      -  133211

Intro

    Bm             A           E

e|-------------------------------------------------------|
B|--3-----3--------2-----2-----0-----0-----0-----0-------|
G|--4-----4--------2-----2-----1-----1-----1-----1-------|
D|-----4-----4--------2-----2-----2-----2-----------2----|
A|--2--------------0--------------------------2----------|
E|-----------------------------0-------------------------|

    Bm             A            E
e|-------------------------------------------------------|
B|--3-----3--------2-----2h3-2--0-----------0------------|
G|--4-----4--------2------------1------1h2-----1---------|
D|-----4-----4--------2--2h4-2------2--------------------|
A|--2--------------0-------------------------------------|
E|------------------------------0------------------------|


Verse

    Bm             A           E
e|-------------------------------------------------------|
B|--3-----3--------2-----2-----0-----0-----0-----0-------|
G|--4-----4--------2-----2-----1-----1-----1-----1-------|
D|-----4-----4--------2-----2-----2-----2-----------2----|
A|--2--------------0--------------------------2----------|
E|-----------------------------0-------------------------|
         When Jamie smiles          it takes me miles

    Bm             A           E                       A
e|-----------------------------------------------------------|
B|--3-----3--------2-----2-----0----------0-----------------2|
G|--4-----4--------2-----2-----1-----1h2-----2--1--------2---|
D|-----4-----4--------2-----2--------------------------------|
A|--2--------------0---------------2-------------------0-----|
E|-----------------------------0-----------------------------|
                  from where i feel unsure

    Bm             A           C#/Dbm     D*

e|----------------------------------------------------5------|
B|--3-----3--------2-----2-----5----5--------------7---------|
G|--4-----4--------2-----2-----6----6-----------7------------|
D|-----4-----4--------2-----2-----6----6-----7---------------|
A|--2--------------0-----------4----------5------------------|
E|-----------------------------------------------------------|
        When Jamie smiles           I realise

Chorus:

                  [A]       [G]
She's no ordinary girl
     [F#/Gbm]
Mmmmmmmmm
  [D]       [A]
No ordinary girl
[G]   [F#/Gbm]     [Dm]
Oohhhhh

Verse:

[Bm]       [A]    [E]
When Jamie smiles just for a while
[Bm]    [A]        [E]
      I feel so far away
[Bm]       [A] [C#/Dbm] [D*]
When Jamie smiles I realise

Chorus:

                  [A]       [G]
She's no ordinary girl
     [F#/Gbm]
Oohhh no
  [D]       [A]
No ordinary girl
[G]   [F#/Gbm]
Oohhh no
  [F]       [G]
No ordinary girl
[A]   [G]     [F#/Gbm]
     Noooo
  [D]       [A]
No ordinary girl
[G]   [F#/Gbm]   [Dm]
oooohhhhhh

Solo/Riff.... thing:
(Background plays verse)

e|-------0------0-----------0--------0-----0----0---0--------|
B|----0--------0--0-------0--------0-------------------------|
G|-4--------2---------2/4--------4------6-----7---6---4------|
D|-----------------------------------------------------------|
A|-----------------------------------------------------------|
E|-----------------------------------------------------------|

e|--------------------------0--------------------------------|
B|-----------------------0-------5\3-3/7--5p3-5p3------------|
G|-------------2----2/4---------------------------4p2h4------|
D|-0-2-3/4---------------------------------------------------|
A|-----------------------------------------------------------|
E|-----------------------------------------------------------|

Verse:
(Solo/Riff played along)
[Bm]       [A]    [E]
When Jamie smiles it takes me miles
[Bm]    [A]        [E]
      From where I feel unsure
[Bm]       [A] [C#/Dbm] [D*]
When Jamie smiles I realise

Chorus/Outro:

                  [A]       [G]
She's no ordinary girl
     [F#/Gbm]
Oohhh no
  [F]       [G]
No ordinary girl
[A]   [G]   [F#/Gbm]
Oohhh no
  [F]       [G]
No ordinary girl
[A]   [G]   [F#/Gbm]
Oohhh no
  [F]       [G]
No ordinary girl
[A]   [G]   [F#/Gbm]
Ooooooooooh
  [F]       [G]

(Repeat until the end, finish with a strum on [A])


| /  slide up
| \  slide down
| h  hammer-on
| p  pull-off
============================================================================

From the film, "Just Friends."

I'm quite sure this is pretty accurate but I'm open to any criticism.
Tap to rate this tab
 
# A B C D E F G H I J K L M N O P Q R S T U V W X Y Z