Song name
# A B C D E F G H I J K L M N O P Q R S T U V W X Y Z

Dusty Rhodes And The River Band - Ghost Trails tab

Artist: Dusty Rhodes and the River Band -> http://www.myspace.com/dustyrhodes
Song: Ghost Trails
Album: First You Live

Capo 2

Intro:
e||----0------1-------0------|
B||------1------0-------1----|
G||--2-----0--------------0--|
D||----------------3---------|
A||--------------------------|
E||--------------------------|

Am  Dm   C    G	x2
Am

Verse :
E||-------------|   -----------|
B||---1-------1-|   --1------1-|
G||---p2-0h2----|x4 -----------|x4
D||-3-----------|   --p2-0h2---|
A||-------------|   -0---------|
E||-------------|   -----------|

E||------------|   ------------|
B||---0------0-|   ---1------1-|
G||------------|x4 ------------|x4
D||------------|   ---p2-0h2---|
A||---p2-0h2---|   -3----------|
E||-3----------|   ------------|

Am  Dm   C    G	x2

Intro

Then : Am G

Solo (without capo) :
E||----------------------------------------------------------|
B||-12-------------------------14-141414--------14b15b14-----|
G||----11----------11-------11-----------111111--------------|
D||-------12----12----12-11----------------------------------|
A||----------12----------------------------------------------|
E||----------------------------------------------------------|

E||----------------------------------------------------------|
B||-12-------------------------14-141414-p12-121212-p11-1111-|
G||----11----------11-------11-------------------------------|
D||-------12----12----12-11----------------------------------|
A||----------12----------------------------------------------|
E||----------------------------------------------------------|

End : Intro + Am
Tap to rate this tab
# A B C D E F G H I J K L M N O P Q R S T U V W X Y Z