Song name
# A B C D E F G H I J K L M N O P Q R S T U V W X Y Z

Dutch Uncles - X-o tab

Dutch Uncles - X-O

Standard Tuning

e-10------------------|
B------12-----10------|
G---12---11--9--11----|
D-----------9---------|
A---------------------|
E---------------------| verse



e-10---11-------------| 
B----8----8------11---|
G-----------8-10----12|
D---------------------|
A---------------------|
E---------------------| Chorus 

Thats it. Written by SlashSlashing, uploaded by Pat Thomas. 

Tap to rate this tab
# A B C D E F G H I J K L M N O P Q R S T U V W X Y Z