Song name
# A B C D E F G H I J K L M N O P Q R S T U V W X Y Z

Dvda - Chewbacca tab

This is a song made by DVDA. Very easy to play. You can hear it during the credits in 
Park Episode 311 - Starvin' Marvin In Space.

I'm not sure how they play the introduction part, its slightly different from the chorus.

Standard Tuning: EADGBe

Verse:
e|------------|
B|------------|
G|------------| x8
D|------------|
A|------------|
E|--0-0-7--6--|

Chorus:
e|-----------------------------------------|
B|-----------------------------------------|
G|-----------------------------------------| x16
D|--9-9-8-7---9-9-8-7---9-9-8-7---9-9-8-7--|
A|--9-9-8-7---9-9-8-7---9-9-8-7---9-9-8-7--|
E|--7-7-6-5---7-7-6-5---7-7-6-5---7-7-6-5--|

Verse:
e|------------|
B|------------|
G|------------| x8
D|------------|
A|------------|
E|--0-0-7--6--|


Chorus:
e|-----------------------------------------|
B|-----------------------------------------|
G|-----------------------------------------| x16
D|--9-9-8-7---9-9-8-7---9-9-8-7---9-9-8-7--|
A|--9-9-8-7---9-9-8-7---9-9-8-7---9-9-8-7--|
E|--7-7-6-5---7-7-6-5---7-7-6-5---7-7-6-5--|

Chorus:
e|-----------------------------------------|
B|-----------------------------------------|
G|-----------------------------------------| x16
D|--9-9-8-7---9-9-8-7---9-9-8-7---9-9-8-7--|
A|--9-9-8-7---9-9-8-7---9-9-8-7---9-9-8-7--|
E|--7-7-6-5---7-7-6-5---7-7-6-5---7-7-6-5--|

Thats pretty much it!
Enjoy :P
Tap to rate this tab
# A B C D E F G H I J K L M N O P Q R S T U V W X Y Z