Song name
# A B C D E F G H I J K L M N O P Q R S T U V W X Y Z

Dvda - Timmy The Lords Of The Underworld tab

-----------------------------------------------------------------------------
Timmy & The Lords Of The Underworld - by DVDA
-----------------------------------------------------------------------------

TUNING: Standard
h = hammer
\ = slide down

VERSE
|----------------|----------------|----------------|----------------|
|----------------|----------------|----------------|----------------|
|----------------|----------------|----------------|----------------|
|----------------|----------------|----------------|----------------|
|--------0-0-0234|----------------|--------0-0-0234|------------7\\\|
|0-0-0234--------|0---------------|0-0-0234--------|0-----------7\\\|
      hhh     hhh                       hhh     hhh

|----------------|----------------|----------------|----------------|
|----------------|----------------|----------------|----------------|
|----------------|----------------|----------------|----------------|
|----------------|----------------|----------------|----------------|
|--------0-0-0234|----------------|--------0-0-0234|------------7\\\|
|0-0-0234--------|0---------------|0-0-0234--------|0-----------7\\\|
      hhh     hhh                       hhh     hhh

CHORUS
|----------------|----------------|----------------|----------------|
|----------------|----------------|----------------|----------------|
|4-444444--------|----------------|4-444444--------|----------------|
|4-44444444444444|6666666666666666|4-44444444444444|6666666666666666|
|2-22222244444444|6666666666666666|2-22222244444444|6666666666666666|
|--------22222222|4444444444444444|--------22222222|4444444444444444|


|----------------|----------------|----------------|----------------|
|----------------|----------------|----------------|----------------|
|4-444444--------|----------------|4-444444--------|----------------|
|4-44444444444444|6666666666666666|4-44444444444444|6666666666666666|
|2-22222244444444|6666666666666666|2-22222244444444|6666666666666666|
|--------22222222|4444444444444444|--------22222222|4444444444444444|

FILLER
|----------------|
|----------------|
|----------------|
|----------------|
|----------------|
|0---------------| *the FILLER is played once after the CHORUS
Tap to rate this tab
# A B C D E F G H I J K L M N O P Q R S T U V W X Y Z