Song name
# A B C D E F G H I J K L M N O P Q R S T U V W X Y Z

Dvda - Brian Boitano tab

Brian Boitano - DVDA

----------------------------|
----------------------------|
----------7-9---------------|
-7-7-7-7--7-9--7-7-7-7--5-2-|
-7-7-7-7--5-7--7-7-7-7--5-2-|
-5-5-5-5-------5-5-5-5--3-0-|

----------------------------|
----------------------------|
----------7-9---------------|
-7-7-7-7--7-9--7-7-7-7--5-7-|
-7-7-7-7--5-7--7-7-7-7--5-7-|
-5-5-5-5-------5-5-5-5--3-5-|

Then the next part goes:

----------------------------|
----------------------------|
----------7-9---------------|
-7--------7-9--7--------5-2-|
-7--------5-7--7--------5-2-|
-5-------------5--------3-0-|

----------------------------|
----------------------------|
----------7-9---------------|
-7--------7-9--7--------5-7-|
-7--------5-7--7--------5-7-|
-5-------------5--------3-5-|
Tap to rate this tab
 
# A B C D E F G H I J K L M N O P Q R S T U V W X Y Z