Song name
# A B C D E F G H I J K L M N O P Q R S T U V W X Y Z

Dwarves - Dominator tab

Help us improve GuitareTab! Take a short survey!
-------------------------------------------------------------------------------
Dominator - The Dwarves
The Dwarves Must Die
-------------------------------------------------------------------------------
Tabbed by: axeslash
Email: holmzito@yahoo.com

Tuning: Both guitars are in Standard tuning.

Guitar 1:
e|---------------------------------------------------------|
B|-12--------------------------------12--------------------|
G|-11--------------------------------11--------------------|
D|--9---------------------------------9--------------------|
A|---------------------------------------------------------|
E|---------------------------------------------------------|
Guitar 2:
e|---------------------------------------------------------|
B|---------------------------------------------------------|
G|----------------------------------------------------7----|
D|----------------------------------------------------5----|
A|-9-9--9-9-9-9-7-7-9-9--9-9-9-9-7-7-9-9--9-9-9-9-7-7------|
E|-7-7--7-7-7-7-5-5-7-7--7-7-7-7-5-5-7-7--7-7-7-7-5-5------|


Guitar 1:
e|--------------------------------------|
B|--------------------------------------|
G|---------------------------7---9--11--|
D|---------------------------5---7---9--|
A|-9-9-9-9-9-9-9-9-9-9-9-9-9------------|
E|-7-7-7-7-7-7-7-7-7-7-7-7-7-----------| x2
    [X-X-X] [X-X-X] [X-X-X]
Guitar 2:
e|------------------------------------|
B|------------------------------------|
G|------------------------------------|
D|------------------------------------|
A|-9-9-9-9-9-9-9-9-9-9-9-9-9-5--7--9--|
E|-7-7-7-7-7-7-7-7-7-7-7-7-7-3--5--7--| x2
    [X-X-X] [X-X-X] [X-X-X]


Guitar 1:
e|----------------------------------------------|
B|----------------------------------------------|
G|---------------------------------9------------|
D|---------------------------------7------------|
A|-9-9-9-9-9-9-9-9-9-9-9-9-9-9-9-9--------------|
E|-7-7-7-7-7-7-7-7-7-7-7-7-7-7-7-7--------------| x2
    [X-X-X] [X-X-X] [X-X-X] [X-X-X]
Guitar 2:
e|---------------------------------0-------|
B|---------------------------------2-------|
G|---------------------------------2-------|
D|---------------------------------2-------|
A|-9-9-9-9-9-9-9-9-9-9-9-9-9-9-9-9-0-------|
E|-7-7-7-7-7-7-7-7-7-7-7-7-7-7-7-7---------| x2
    [X-X-X] [X-X-X] [X-X-X] [X-X-X]


Guitar 1:
e|--------------------------------------|
B|--------------------------------------|
G|---------------------------7---9--11--|
D|---------------------------5---7---9--|
A|-9-9-9-9-9-9-9-9-9-9-9-9-9------------|
E|-7-7-7-7-7-7-7-7-7-7-7-7-7-----------| x2
    [X-X-X] [X-X-X] [X-X-X]
Guitar 2:
e|------------------------------------|
B|------------------------------------|
G|------------------------------------|
D|------------------------------------|
A|-9-9-9-9-9-9-9-9-9-9-9-9-9-5--7--9--|
E|-7-7-7-7-7-7-7-7-7-7-7-7-7-3--5--7--| x2
    [X-X-X] [X-X-X] [X-X-X]


Guitar 1:
e|----------------------------------------------|
B|----------------------------------------------|
G|---------------------------------9------------|
D|---------------------------------7------------|
A|-9-9-9-9-9-9-9-9-9-9-9-9-9-9-9-9--------------|
E|-7-7-7-7-7-7-7-7-7-7-7-7-7-7-7-7--------------| x2
    [X-X-X] [X-X-X] [X-X-X] [X-X-X]
Guitar 2:
e|---------------------------------0-------|
B|---------------------------------2-------|
G|---------------------------------2-------|
D|---------------------------------2-------|
A|-9-9-9-9-9-9-9-9-9-9-9-9-9-9-9-9-0-------|
E|-7-7-7-7-7-7-7-7-7-7-7-7-7-7-7-7---------| x2
    [X-X-X] [X-X-X] [X-X-X] [X-X-X]


Guitars 1 & 2 
e|-----------------------------------------------------------------|
B|-----------------------------------------------------------------|
G|-----------------------------------------------------------------|
D|-4-4-4-4-7-7-7-7-4-4-4-4-7-7-7-7-4-4-4-4-7-7-7-7-4-4-4-4---------|
A|-2-2-2-2-5-5-5-5-2-2-2-2-5-5-5-5-2-2-2-2-5-5-5-5-2-2-2-2-4-4-4-4-|
E|---------------------------------------------------------2-2-2-2-|


Guitar 1:
e|--------------------------------------------------------------------|
B|--------------------------------------------------------------------|
G|--------------------------------------------------------------------|
D|-5---------------5---------------7---------------8^--10^--12^--14^--|
A|-5-5-5-5-5-5-5-5-5-5-5-5-5-5-5-5-7-7-7-7-7-7-7-7--------------------|
E|-3-3-3-3-3-3-3-3-3-3-3-3-3-3-3-3-5-5-5-5-5-5-5-5--------------------|
    [X-X-X-X-X-X-X] [X-X-X-X-X-X-X] [X-X-X-X-X-X-X]
Guitar 2:
e|-----------------------------------------------------------------|
B|-----------------------------------------------------------------|
G|-----------------------------------------------------------------|
D|-5---------------5---------------7---------------7---------------|
A|-5-5-5-5-5-5-5-5-5-5-5-5-5-5-5-5-7-7-7-7-7-7-7-7-7-7-7-7-7-7-7-7-|
E|-3-3-3-3-3-3-3-3-3-3-3-3-3-3-3-3-5-5-5-5-5-5-5-5-5-5-5-5-5-5-5-5-|
    [X-X-X-X-X-X-X] [X-X-X-X-X-X-X] [X-X-X-X-X-X-X] [X-X-X-X-X-X-X]


Guitar 1:
e|--------------------------------------|
B|--------------------------------------|
G|---------------------------7---9--11--|
D|---------------------------5---7---9--|
A|-9-9-9-9-9-9-9-9-9-9-9-9-9------------|
E|-7-7-7-7-7-7-7-7-7-7-7-7-7-----------| x2
    [X-X-X] [X-X-X] [X-X-X]
Guitar 2:
e|------------------------------------|
B|------------------------------------|
G|------------------------------------|
D|------------------------------------|
A|-9-9-9-9-9-9-9-9-9-9-9-9-9-5--7--9--|
E|-7-7-7-7-7-7-7-7-7-7-7-7-7-3--5--7--| x2
    [X-X-X] [X-X-X] [X-X-X]


Guitar 1:
e|----------------------------------------------|
B|----------------------------------------------|
G|---------------------------------9------------|
D|---------------------------------7------------|
A|-9-9-9-9-9-9-9-9-9-9-9-9-9-9-9-9--------------|
E|-7-7-7-7-7-7-7-7-7-7-7-7-7-7-7-7--------------| x2
    [X-X-X] [X-X-X] [X-X-X] [X-X-X]
Guitar 2:
e|---------------------------------0-------|
B|---------------------------------2-------|
G|---------------------------------2-------|
D|---------------------------------2-------|
A|-9-9-9-9-9-9-9-9-9-9-9-9-9-9-9-9-0-------|
E|-7-7-7-7-7-7-7-7-7-7-7-7-7-7-7-7---------| x2
    [X-X-X] [X-X-X] [X-X-X] [X-X-X]


Guitar 1:
e|--------------------------------------|
B|--------------------------------------|
G|---------------------------7---9--11--|
D|---------------------------5---7---9--|
A|-9-9-9-9-9-9-9-9-9-9-9-9-9------------|
E|-7-7-7-7-7-7-7-7-7-7-7-7-7-----------| x2
    [X-X-X] [X-X-X] [X-X-X]
Guitar 2:
e|------------------------------------|
B|------------------------------------|
G|------------------------------------|
D|------------------------------------|
A|-9-9-9-9-9-9-9-9-9-9-9-9-9-5--7--9--|
E|-7-7-7-7-7-7-7-7-7-7-7-7-7-3--5--7--| x2
    [X-X-X] [X-X-X] [X-X-X]


Guitar 1:
e|--------------------------------------------------------------------|
B|--------------------------------------------------------------------|
G|--------------------------------------------------------------------|
D|---------------------------7--9--11--7--9--11--7--9--11-11-11-11-11-|
A|-9-9-9-9-9-9-9-9-9-9-9-9-9-5--7---9--5--7---9--5--7---9--9--9--9--9-|
E|-7-7-7-7-7-7-7-7-7-7-7-7-7------------------------------------------| 
    [X-X-X] [X-X-X] [X-X-X]
Guitar 2:
e|------------------------------------------------------------|
B|------------------------------------------------------------|
G|------------------------------------------------------------|
D|------------------------------------------------------------|
A|-9-9-9-9-9-9-9-9-9-9-9-9-9-5--7--9--5--7--9--5--7--9-9-9-9-9|
E|-7-7-7-7-7-7-7-7-7-7-7-7-7-3--5--7--3--5--7--3--5--7-7-7-7-7|
    [X-X-X] [X-X-X] [X-X-X]

| ^   bend
| [x] palm mute
| /   slide up
| \   slide down
| h   hammer-on
| p   pull-off
| ~   vibrato
| +   harmonic
| x   Mute note
===============================================================================
Related for Dominator tab