Song name
# A B C D E F G H I J K L M N O P Q R S T U V W X Y Z

Dwarves - Fuck Around tab

Intro
E----------|----------|----------|----------|
B----------|----------|----------|----------|
G-5--------|-2--------|----------|----------|
D-5--------|-2--------|-3--------|-5--------|
A-3--------|-0--------|-3--------|-5--------|
E----------|----------|-1--------|-3--------|

Main riff                       x2
E---------------------------------|---------------------------------|
B---------------------------------|---------------------------------|
G-5-5-5-5-5-5-5-5-2-2-2-2-2-2-2-2-|---------------------------------|
D-5-5-5-5-5-5-5-5-2-2-2-2-2-2-2-2-|-3-3-3-3-3-3-3-3-5-5-5-5-5-5-5-5-|
A-3-3-3-3-3-3-3-3-0-0-0-0-0-0-0-0-|-3-3-3-3-3-3-3-3-5-5-5-5-5-5-5-5-|
E---------------------------------|-1-1-1-1-1-1-1-1-3-3-3-3-3-3-3-3-|

Bridge
E-----------------------------|
B-----------------------------|
G-3--3--3--3--5-5-5-5-5-5-5-5-|
D-3--3--3--3--5-5-5-5-5-5-5-5-|
A-1--1--1--1--3-3-3-3-3-3-3-3-|
E-----------------------------|

Outro
E---------------------------------|
B---------------------------------|
G-5-5-5-5-5-5-5-5-2-2-2-2-2-2-2-2-|
D-5-5-5-5-5-5-5-5-2-2-2-2-2-2-2-2-|
A-3-3-3-3-3-3-3-3-0-0-0-0-0-0-0-0-|
E---------------------------------|

Intro  x1
Main   x3
Bridge x2
Main   x1
Outro  x8 (fades out)
Tap to rate this tab
# A B C D E F G H I J K L M N O P Q R S T U V W X Y Z