Song name
# A B C D E F G H I J K L M N O P Q R S T U V W X Y Z

Dwarves - Thats Rock And Roll tab

Intro (Feed back and pick scrapes)

Verse
E-----------------------------------------------------------------|
B-----------------------------------------------------------------|
G-----------------5-5-5-5-5-5-5-5-----------------7-7-7-7-7-7-7-7-|
D-5-5-5-5-5-5-5-5-5-5-5-5-5-5-5-5-5-5-5-5-5-5-5-5-7-7-7-7-7-7-7-7-|
A-5-5-5-5-5-5-5-5-3-3-3-3-3-3-3-3-5-5-5-5-5-5-5-5-5-5-5-5-5-5-5-5-|
E-3-3-3-3-3-3-3-3-----------------3-3-3-3-3-3-3-3-----------------|

E-----------------------------------------------------------------|
B-----------------------------------------------------------------|
G-----------------5-5-5-5-5-5-5-5---------------------7-7-7-7-7-7-|
D-5-5-5-5-5-5-5-5-5-5-5-5-5-5-5-5-5-5-5-5-5-5-5-5-----7-7-7-7-7-7-|
A-5-5-5-5-5-5-5-5-3-3-3-3-3-3-3-3-5-5-5-5-5-5-5-5-----5-5-5-5-5-5-|
E-3-3-3-3-3-3-3-3-----------------3-3-3-3-3-3-3-3-----------------|

Chorus                          x3
E---------------------------------|-------------------------------|
B---------------------------------|-------------------------------|
G-----------------5-5-5-5-7-7-7-7-|-------------------7-7-7-7-7-7-|
D-5-5-5-5-5-5-5-5-5-5-5-5-7-7-7-7-|-5-5-5-5-5-5-5-----7-7-7-7-7-7-|
A-5-5-5-5-5-5-5-5-3-3-3-3-5-5-5-5-|-5-5-5-5-5-5-5-----5-5-5-5-5-5-|
E-3-3-3-3-3-3-3-3-----------------|-3-3-3-3-3-3-3-----------------|

Verse
E-----------------------------------------------------------------|
B-----------------------------------------------------------------|
G-----------------5-5-5-5-5-5-5-5-----------------7-7-7-7-7-7-7-7-|
D-5-5-5-5-5-5-5-5-5-5-5-5-5-5-5-5-5-5-5-5-5-5-5-5-7-7-7-7-7-7-7-7-|
A-5-5-5-5-5-5-5-5-3-3-3-3-3-3-3-3-5-5-5-5-5-5-5-5-5-5-5-5-5-5-5-5-|
E-3-3-3-3-3-3-3-3-----------------3-3-3-3-3-3-3-3-----------------|

E-----------------------------------------------------------------|
B-----------------------------------------------------------------|
G-----------------5-5-5-5-5-5-5-5---------------------7-7-7-7-7-7-|
D-5-5-5-5-5-5-5-5-5-5-5-5-5-5-5-5-5-5-5-5-5-5-5-5-----7-7-7-7-7-7-|
A-5-5-5-5-5-5-5-5-3-3-3-3-3-3-3-3-5-5-5-5-5-5-5-5-----5-5-5-5-5-5-|
E-3-3-3-3-3-3-3-3-----------------3-3-3-3-3-3-3-3-----------------|

E-----------------------------------------------------------------|
B-----------------------------------------------------------------|
G-----------------5-5-5-5-5-5-5-5-----------------7-7-7-7-7-7-7-7-|
D-5-5-5-5-5-5-5-5-5-5-5-5-5-5-5-5-5-5-5-5-5-5-5-5-7-7-7-7-7-7-7-7-|
A-5-5-5-5-5-5-5-5-3-3-3-3-3-3-3-3-5-5-5-5-5-5-5-5-5-5-5-5-5-5-5-5-|
E-3-3-3-3-3-3-3-3-----------------3-3-3-3-3-3-3-3-----------------|

E-----------------------------------------------------------------|
B-----------------------------------------------------------------|
G-----------------5-5-5-5-5-5-5-5---------------------7-7-7-7-7-7-|
D-5-5-5-5-5-5-5-5-5-5-5-5-5-5-5-5-5-5-5-5-5-5-5-5-----7-7-7-7-7-7-|
A-5-5-5-5-5-5-5-5-3-3-3-3-3-3-3-3-5-5-5-5-5-5-5-5-----5-5-5-5-5-5-|
E-3-3-3-3-3-3-3-3-----------------3-3-3-3-3-3-3-3-----------------|

Chorus                          x3
E---------------------------------|-------------------------------|
B---------------------------------|-------------------------------|
G-----------------5-5-5-5-7-7-7-7-|-------------------7-7-7-7-7-7-|
D-5-5-5-5-5-5-5-5-5-5-5-5-7-7-7-7-|-5-5-5-5-5-5-5-----7-7-7-7-7-7-|
A-5-5-5-5-5-5-5-5-3-3-3-3-5-5-5-5-|-5-5-5-5-5-5-5-----5-5-5-5-5-5-|
E-3-3-3-3-3-3-3-3-----------------|-3-3-3-3-3-3-3-----------------|

Solo                            x3
E---------------------------------|-------------------------------|
B---------------------------------|-------------------------------|
G-----------------5-5-5-5-7-7-7-7-|-------------------7-7-7-7-7-7-|
D-5-5-5-5-5-5-5-5-5-5-5-5-7-7-7-7-|-5-5-5-5-5-5-5-----7-7-7-7-7-7-|
A-5-5-5-5-5-5-5-5-3-3-3-3-5-5-5-5-|-5-5-5-5-5-5-5-----5-5-5-5-5-5-|
E-3-3-3-3-3-3-3-3-----------------|-3-3-3-3-3-3-3-----------------|

Chorus                          x3
E---------------------------------|-------------------------------|
B---------------------------------|-------------------------------|
G-----------------5-5-5-5-7-7-7-7-|-------------------7-7-7-7-7-7-|
D-5-5-5-5-5-5-5-5-5-5-5-5-7-7-7-7-|-5-5-5-5-5-5-5-----7-7-7-7-7-7-|
A-5-5-5-5-5-5-5-5-3-3-3-3-5-5-5-5-|-5-5-5-5-5-5-5-----5-5-5-5-5-5-|
E-3-3-3-3-3-3-3-3-----------------|-3-3-3-3-3-3-3-----------------|

Outro (And keep building up the tempo)                       
E---------------------------------|
B---------------------------------|
G-----------------5-5-5-5-7-7-7-7-|
D-5-5-5-5-5-5-5-5-5-5-5-5-7-7-7-7-|
A-5-5-5-5-5-5-5-5-3-3-3-3-5-5-5-5-|
E-3-3-3-3-3-3-3-3-----------------|
Tap to rate this tab
# A B C D E F G H I J K L M N O P Q R S T U V W X Y Z