Song name
# A B C D E F G H I J K L M N O P Q R S T U V W X Y Z

Dwarves - Way Out tab

Help us improve GuitareTab! Take a short survey!
------------------------------------------------------------------------------
Way Out - The Dwarves
The Dwarves Come Clean
------------------------------------------------------------------------------
Tabbed by: Matthew Holmes (axeslash)
Email: holmzito@yahoo.com

Guitar 1: Lead guitar
Guitar 2: Rhythm, set much quieter than guitar 1
Tunings: EADGBE

Guitar 1
e|-----------------------------|
B|-----------------------------|
G|-----------------------------|
D|-7----7----7---7----7----7---|
A|-5--7-5--7-5-7-5--7-5--7-5-7-|
E|----5----5---5----5----5---5-|

Guitar 1 + 2 (play three times)
e|---------------------------------------------------------------------------|
B|---------------------------------------------------------------------------|
G|-7--7-7-7-7-7-7----7-------------------------------------------------------|
D|-7--7-7-7-7-7-7-7--7--7--5--5-5-5-5-5-5-5-5-5-5-5-5-5-5--------------------|
A|-5--5-5-5-5-5-5-7--5--7--5--5-5-5-5-5-5-5-5-5-5-5-5-5-5--------------------|
E|----------------5-----5--3--3-3-3-3-3-3-3-3-3-3-3-3-3-3--------------------|

Guitar 1 + 2
e|---------------------------------------------------------------------------|
B|---------------------------------------------------------------------------|
G|-7--7-7-7-7-7-7----7----------------------------7-----7--------------------|
D|-7--7-7-7-7-7-7-7--7--7--5--5-5-5-5-5-5-5-5-5-5-5--7--7--------------------|
A|-5--5-5-5-5-5-5-7--5--7--5--5-5-5-5-5-5-5-5-5-5-5--7--5--------------------|
E|----------------5-----5--3--3-3-3-3-3-3-3-3-3-3----5-----------------------|

Guitar 1
e|---------------------------------------------------------------------------|
B|---------------------------------------------------------------------------|
G|---------7----------7----------7--------7--------7-------------------------|
D|-9----7--7--9----7--7--9----7--7--9--7--7--9--7--7-------------------------|
A|-9----7--5--9----7--5--9----7--5--9--7--5--9--7--5-------------------------|
E|-7----5-----7----5-----7----5-----7--5-----7--5----------------------------|
Guitar 2
e|---------------------------------------------------------------------------|
B|---------------------------------------------------------------------------|
G|---------------------------------------------------------------------------|
D|-9-9-9-9-9-9-9-9-9-9-9-9-9-9-9-9-9-9-9-9-9-9-9-9-9-------------------------|
A|-9-9-9-9-9-9-9-9-9-9-9-9-9-9-9-9-9-9-9-9-9-9-9-9-9-------------------------|
E|-7-7-7-7-7-7-7-7-7-7-7-7-7-7-7-7-7-7-7-7-7-7-7-7-7-------------------------|

Guitar 1 + 2 (play three times)
e|---------------------------------------------------------------------------|
B|---------------------------------------------------------------------------|
G|-7--7-7-7-7-7-7----7-------------------------------------------------------|
D|-7--7-7-7-7-7-7-7--7--7--5--5-5-5-5-5-5-5-5-5-5-5-5-5-5--------------------|
A|-5--5-5-5-5-5-5-7--5--7--5--5-5-5-5-5-5-5-5-5-5-5-5-5-5--------------------|
E|----------------5-----5--3--3-3-3-3-3-3-3-3-3-3-3-3-3-3--------------------|

Guitar 1 + 2
e|---------------------------------------------------------------------------|
B|---------------------------------------------------------------------------|
G|-7--7-7-7-7-7-7----7----------------------------7-----7--------------------|
D|-7--7-7-7-7-7-7-7--7--7--5--5-5-5-5-5-5-5-5-5-5-5--7--7--------------------|
A|-5--5-5-5-5-5-5-7--5--7--5--5-5-5-5-5-5-5-5-5-5-5--7--5--------------------|
E|----------------5-----5--3--3-3-3-3-3-3-3-3-3-3----5-----------------------|

Guitar 1
e|---------------------------------------------------------------------------|
B|---------------------------------------------------------------------------|
G|------7-------7------7-----7-----7-------------------7-------------------7-|
D|-9--7-7--9--7-7-9--7-7-9-7-7-9-7-7-9-9-9-9-9-9-9-9-7-7-9-9-9-9-9-9-9-9-7-7-|
A|-9--7-5--9--7-5-9--7-5-9-7-5-9-7-5-9-9-9-9-9-9-9-9-7-5-9-9-9-9-9-9-9-9-7-5-|
E|-7--5----7--5---7--5---7-5---7-5---7-7-7-7-7-7-7-7-5---7-7-7-7-7-7-7-7-5---|
Guitar 2
e|---------------------------------------------------------------------------|
B|---------------------------------------------------------------------------|
G|---------------------------------------------------------------------------|
D|-9-9-9-9-9-9-9-9-9-9-9-9-9-9-9-9-9-9-9-9-9-9-9-9-9-9-9-9-9-9-9-9-9-9-9-9-9-|
A|-9-9-9-9-9-9-9-9-9-9-9-9-9-9-9-9-9-9-9-9-9-9-9-9-9-9-9-9-9-9-9-9-9-9-9-9-9-|
E|-7-7-7-7-7-7-7-7-7-7-7-7-7-7-7-7-7-7-7-7-7-7-7-7-7-7-7-7-7-7-7-7-7-7-7-7-7-|

Guitar 1
e|-------------------------|
B|-------------------------|
G|-----7-----7-----7-----7-|
D|-9-7-7-9-7-7-9-7-7-9-7-7-|
A|-9-7-5-9-7-5-9-7-5-9-7-5-|
E|-7-5---7-5---7-5---7-5---|
Guitar 2
e|-------------------------|
B|-------------------------|
G|-------------------------|
D|-9-9-9-9-9-9-9-9-9-9-9-9-|
A|-9-9-9-9-9-9-9-9-9-9-9-9-|
E|-7-7-7-7-7-7-7-7-7-7-7-7-|

Guitar 1 Solo
e|---------------------------------------------------------------------------|
B|-9^--9^--9^--9^--9^----------------------------------12-12-12--12-10-[12]^-|
G|-9^--9^--9^--9^--9^-9---7~~-7-7-9-11-13-11-9-12-11-9-12-12-12--------------|
D|----------------------9----------------------------------------------------|
A|---------------------------------------------------------------------------|
E|---------------------------------------------------------------------------|
Guitar 2
e|---------------------------------------------------------------------------|
B|---------------------------------------------------------------------------|
G|-7-7-7-7-------------------------7-7-7-7-----------------------------------|
D|-7-7-7-7-7-7-7-7-5-5-5-5-5-5-5-5-7-7-7-7-7-7-7-7-5-5-5-5-5-5-5-5-----------|
A|-5-5-5-5-7-7-7-7-5-5-5-5-5-5-5-5-5-5-5-5-7-7-7-7-5-5-5-5-5-5-5-5-----------|
E|---------5-5-5-5-3-3-3-3-3-3-3-3---------5-5-5-5-3-3-3-3-3-3-3-3-----------|

Guitar 1
e|---------------------------------------------------------------------------|
B|---------------------------------------------------------------------------|
G|11-11-11-11-9-9-9-9-8-8-8-8-7-7-7-7-7-7-7-7-8-8-8-8-9-9-9-9-10-10-10-10-11\|
D|-9--9--9--9-7-7-7-7-6-6-6-6-5-5-5-5-5-5-5-5-6-6-6-6-7-7-7-7--8--8--8--8--9\|
A|---------------------------------------------------------------------------|
E|---------------------------------------------------------------------------|
Guitar 2 (under guitar 1)
G|---------------------------------------------------------------------------|
D|---------------------------------------------------------------------------|
A|-7-7-7-7-------------------------7-7-7-7-----------------------------------|
E|-7-7-7-7-7-7-7-7-5-5-5-5-5-5-5-5-7-7-7-7-7-7-7-7-5-5-5-5-5-5-5-5-----------|
e|-5-5-5-5-7-7-7-7-5-5-5-5-5-5-5-5-5-5-5-5-7-7-7-7-5-5-5-5-5-5-5-5-----------|
B|---------5-5-5-5-3-3-3-3-3-3-3-3---------5-5-5-5-3-3-3-3-3-3-3-3-----------|

Guitar 1 
e|---------------------------------------------------------------------------|
B|---------------------------------------------------------------------------|
G|--------------------------7----7--------------------------7-7--------------|
D|pm|----------------------|7--7-7pm|---------------------|-7-7--7--7-7-7-7--|
A|--9-9-9-9-9-9-9-9-9-9-9-9-5--7-5--9-9-9-9-9-9-9-9-9-9-9-9-5-5--7--7-7-7-7--|
E|--7-7-7-7-7-7-7-7-7-7-7-7----5----7-7-7-7-7-7-7-7-7-7-7-7------5--5-5-5-5--|
Guitar 2
e|---------------------------------------------------------------------------|
B|---------------------------------------------------------------------------|
G|--------------------------7----7-------------------------------------------|
D|--------------------------7--7-7-------------------------------------------|
A|--9-9-9-9-9-9-9-9-9-9-9-9-5--7-5--9-9-9-9-9-9-9-9-9-9-9-9-9-9-9-9-9-9-9-9--|
E|--7-7-7-7-7-7-7-7-7-7-7-7----5----7-7-7-7-7-7-7-7-7-7-7-7-7-7-7-7-7-7-7-7--|

Guitar 1
e|---------------------------------------------------------------------------|
B|---------------------------------------------------------------------------|
G|------7-------7------7-----7-----7-------------------7-------------------7-|
D|-9--7-7--9--7-7-9--7-7-9-7-7-9-7-7-9-9-9-9-9-9-9-9-7-7-9-9-9-9-9-9-9-9-7-7-|
A|-9--7-5--9--7-5-9--7-5-9-7-5-9-7-5-9-9-9-9-9-9-9-9-7-5-9-9-9-9-9-9-9-9-7-5-|
E|-7--5----7--5---7--5---7-5---7-5---7-7-7-7-7-7-7-7-5---7-7-7-7-7-7-7-7-5---|
Guitar 2 (under guitar 1)
e|---------------------------------------------------------------------------|
B|---------------------------------------------------------------------------|
G|---------------------------------------------------------------------------|
D|-9-9-9-9-9-9-9-9-9-9-9-9-9-9-9-9-9-9-9-9-9-9-9-9-9-9-9-9-9-9-9-9-9-9-9-9-9-|
A|-9-9-9-9-9-9-9-9-9-9-9-9-9-9-9-9-9-9-9-9-9-9-9-9-9-9-9-9-9-9-9-9-9-9-9-9-9-|
E|-7-7-7-7-7-7-7-7-7-7-7-7-7-7-7-7-7-7-7-7-7-7-7-7-7-7-7-7-7-7-7-7-7-7-7-7-7-|

Guitar 1
e|---------------------------------|
B|---------------------------------|
G|-----7-----7-----7-----7-7----7\-|
D|-9-7-7-9-7-7-9-7-7-9-7-7-7--7-7\-|
A|-9-7-5-9-7-5-9-7-5-9-7-5-5--7-5\-|
E|-7-5---7-5---7-5---7-5------5----|
Guitar 2
e|---------------------------------|
B|---------------------------------|
G|-------------------------7----7~-|
D|-9-9-9-9-9-9-9-9-9-9-9-9-7--7-7~-|
A|-9-9-9-9-9-9-9-9-9-9-9-9-5--7-5~-|
E|-7-7-7-7-7-7-7-7-7-7-7-7----5----|


| /  slide up
| \  slide down
| h  hammer-on
| p  pull-off
| ~  vibrato
| [] harmonic
| x  Mute note
| ^  Bend
==============================================================================
Related for Way Out tab