Song name
# A B C D E F G H I J K L M N O P Q R S T U V W X Y Z

Dwarves - I Hate Girls tab

Intro/Main
E------------|------------|------------|------------|
B------------|------------|------------|------------|
G------------|------------|------------|------------|
D-7-7-5-5-7--|-7-7-5-5-7--|-7-7-5-5-7--|-7-7-5-5-7--|
A-7-7-5-5-7--|-7-7-5-5-7--|-7-7-5-5-7--|-7-7-5-5-7--|
E-5-5-3-3-5--|-5-5-3-3-5--|-5-5-3-3-5--|-5-5-3-3-5--|

Verse
E-------------|-------------|-------------|-------------|
B-------------|-------------|-------------|-------------|
G---------7-5-|---------7-5-|---------7-5-|---------7-5-|
D-7-7-5-5-7-5-|-7-7-5-5-7-5-|-7-7-5-5-7-5-|-7-7-5-5-7-5-|
A-7-7-5-5-5-3-|-7-7-5-5-5-3-|-7-7-5-5-5-3-|-7-7-5-5-5-3-|
E-5-5-3-3-----|-5-5-3-3-----|-5-5-3-3-----|-5-5-3-3-----|

Pre-Chours
E---------------------------------|---------------------------------|
B---------------------------------|---------------------------------|
G-9-9-9-9-9-9-9-9-7-7-7-7-7-7-7-7-|-9-9-9-9-9-9-9-9-7-7-7-7-7-7-7-7-|
D-9-9-9-9-9-9-9-9-7-7-7-7-7-7-7-7-|-9-9-9-9-9-9-9-9-7-7-7-7-7-7-7-7-|
A-7-7-7-7-7-7-7-7-5-5-5-5-5-5-5-5-|-7-7-7-7-7-7-7-7-5-5-5-5-5-5-5-5-|
E---------------------------------|---------------------------------|

Chorus
E--------|--------|--------|--------|
B--------|--------|--------|--------|
G---7-9--|---7-9--|---7-9--|---7-9--|
D-7-7-9--|-7-7-9--|-7-7-9--|-7-7-9--|
A-7-5-7--|-7-5-7--|-7-5-7--|-7-5-7--|
E-5------|-5------|-5------|-5------|

Main
E------------|------------|------------|------------|
B------------|------------|------------|------------|
G------------|------------|------------|------------|
D-7-7-5-5-7--|-7-7-5-5-7--|-7-7-5-5-7--|-7-7-5-5-7--|
A-7-7-5-5-7--|-7-7-5-5-7--|-7-7-5-5-7--|-7-7-5-5-7--|
E-5-5-3-3-5--|-5-5-3-3-5--|-5-5-3-3-5--|-5-5-3-3-5--|

Verse
E-------------|-------------|-------------|-------------|
B-------------|-------------|-------------|-------------|
G---------7-5-|---------7-5-|---------7-5-|---------7-5-|
D-7-7-5-5-7-5-|-7-7-5-5-7-5-|-7-7-5-5-7-5-|-7-7-5-5-7-5-|
A-7-7-5-5-5-3-|-7-7-5-5-5-3-|-7-7-5-5-5-3-|-7-7-5-5-5-3-|
E-5-5-3-3-----|-5-5-3-3-----|-5-5-3-3-----|-5-5-3-3-----|

Pre-Chours
E---------------------------------|---------------------------------|
B---------------------------------|---------------------------------|
G-9-9-9-9-9-9-9-9-7-7-7-7-7-7-7-7-|-9-9-9-9-9-9-9-9-7-7-7-7-7-7-7-7-|
D-9-9-9-9-9-9-9-9-7-7-7-7-7-7-7-7-|-9-9-9-9-9-9-9-9-7-7-7-7-7-7-7-7-|
A-7-7-7-7-7-7-7-7-5-5-5-5-5-5-5-5-|-7-7-7-7-7-7-7-7-5-5-5-5-5-5-5-5-|
E---------------------------------|---------------------------------|

Chorus
E--------|--------|--------|--------|
B--------|--------|--------|--------|
G---7-9--|---7-9--|---7-9--|---7-9--|
D-7-7-9--|-7-7-9--|-7-7-9--|-7-7-9--|
A-7-5-7--|-7-5-7--|-7-5-7--|-7-5-7--|
E-5------|-5------|-5------|-5------|

Main
E------------|------------|------------|------------|
B------------|------------|------------|------------|
G------------|------------|------------|------------|
D-7-7-5-5-7--|-7-7-5-5-7--|-7-7-5-5-7--|-7-7-5-5-7--|
A-7-7-5-5-7--|-7-7-5-5-7--|-7-7-5-5-7--|-7-7-5-5-7--|
E-5-5-3-3-5--|-5-5-3-3-5--|-5-5-3-3-5--|-5-5-3-3-5--|
Tap to rate this tab
# A B C D E F G H I J K L M N O P Q R S T U V W X Y Z