Song name
# A B C D E F G H I J K L M N O P Q R S T U V W X Y Z

Dwarves - Runaway tab

Intro (Drums only)

1-2-3-4

Verse
E-----------------------|-----------------------|
B-----------------------|-----------------------|
G-----------2----4--4-4-|-----------2----4--4-4-|
D-2----4----2----4--4-4-|-2----4----2----4--4-4-|
A-2----4----0----2--2-2-|-2----4----0----2--2-2-|
E-0----2----------------|-0----2----------------|

Bridge ("They fell In love...")
E---------------------------|---------------------------|
B---------------------------|---------------------------|
G-------9--9----------------|-------9--9----------------|
D-11-11-9--9--11-11-9-9-7-7-|-11-11-9--9--11-11-9-9-7-7-|
A-11-11-7--7--11-11-9-9-7-7-|-11-11-7--7--11-11-9-9-7-7-|
E-9--9--------9--9--7-7-5-5-|-9--9--------9--9--7-7-5-5-|

Chorus
E-------------------|---------------------------------|
B-------------------|---------------------------------|
G-9-9-9-9-----------|---------------------------------|
D-9-9-9-9-9--9-11-11|-7-7-7-7-7-7-7-7-9-9-9-9-9-9-9-9-|
A-7-7-7-7-9--9-11-11|-7-7-7-7-7-7-7-7-9-9-9-9-9-9-9-9-|
E---------7--7-9--9-|-5-5-5-5-5-5-5-5-7-7-7-7-7-7-7-7-|

E-------------------|---------------------------------|
B-------------------|---------------------------------|
G-9-9-9-9-----------|-----------------9-9-9-9-9-9-9-9-|
D-9-9-9-9-9--9------|-7-7-7-7-9-9-9-9-9-9-9-9-9-9-9-9-|
A-7-7-7-7-9--9-11-11|-7-7-7-7-9-9-9-9-7-7-7-7-7-7-7-7-|
E---------7--7-9--9-|-5-5-5-5-7-7-7-7-----------------|

Verse 2
E-----------------------|-----------------------|
B-----------------------|-----------------------|
G-----------2----4--4-4-|-----------2----4--4-4-|
D-2----4----2----4--4-4-|-2----4----2----4--4-4-|
A-2----4----0----2--2-2-|-2----4----0----2--2-2-|
E-0----2----------------|-0----2----------------|

Chorus
E-------------------|---------------------------------|
B-------------------|---------------------------------|
G-9-9-9-9-----------|---------------------------------|
D-9-9-9-9-9--9-11-11|-7-7-7-7-7-7-7-7-9-9-9-9-9-9-9-9-|
A-7-7-7-7-9--9-11-11|-7-7-7-7-7-7-7-7-9-9-9-9-9-9-9-9-|
E---------7--7-9--9-|-5-5-5-5-5-5-5-5-7-7-7-7-7-7-7-7-|

E-------------------|---------------------------------|
B-------------------|---------------------------------|
G-9-9-9-9-----------|-----------------9-9-9-9-9-9-9-9-|
D-9-9-9-9-9--9------|-7-7-7-7-9-9-9-9-9-9-9-9-9-9-9-9-|
A-7-7-7-7-9--9-11-11|-7-7-7-7-9-9-9-9-7-7-7-7-7-7-7-7-|
E---------7--7-9--9-|-5-5-5-5-7-7-7-7-----------------|

Verse 3
E-----------------------|-----------------------|
B-----------------------|-----------------------|
G------------------x4x4-|------------------x2x2-|
D-2----------------x4x4-|-2----------------x2x2-|
A-2----------------x2x2-|-2----------------x2x2-|
E-0---------------------|-0---------------------|

Chorus
E-------------------|---------------------------------|
B-------------------|---------------------------------|
G-9-9-9-9-----------|---------------------------------|
D-9-9-9-9-9--9-11-11|-7-7-7-7-7-7-7-7-9-9-9-9-9-9-9-9-|
A-7-7-7-7-9--9-11-11|-7-7-7-7-7-7-7-7-9-9-9-9-9-9-9-9-|
E---------7--7-9--9-|-5-5-5-5-5-5-5-5-7-7-7-7-7-7-7-7-|

E-------------------|---------------------------------|
B-------------------|---------------------------------|
G-9-9-9-9-----------|-----------------9-9-9-9-9-9-9-9-|
D-9-9-9-9-9--9------|-7-7-7-7-9-9-9-9-9-9-9-9-9-9-9-9-|
A-7-7-7-7-9--9-11-11|-7-7-7-7-9-9-9-9-7-7-7-7-7-7-7-7-|
E---------7--7-9--9-|-5-5-5-5-7-7-7-7-----------------|

Outro ("We just wanna have some fun...")
E---------------------------------|---------------------------------|
B---------------------------------|---------------------------------|
G-----------------9-9-9-9-9-9-9-9-|-----------------9-9-9-9-9-9-9-9-|
D-7-7-7-7-7-7-7-7-9-9-9-9-9-9-9-9-|-7-7-7-7-7-7-7-7-9-9-9-9-9-9-9-9-|
A-7-7-7-7-7-7-7-7-7-7-7-7-7-7-7-7-|-7-7-7-7-7-7-7-7-7-7-7-7-7-7-7-7-|
E-5-5-5-5-5-5-5-5-----------------|-5-5-5-5-5-5-5-5-----------------|

E---------------------------------|----------------|
B---------------------------------|----------------|
G-----------------9-9-9-9-9-9-9-9-|-----------9----|
D-7-7-7-7-7-7-7-7-9-9-9-9-9-9-9-9-|-9----7----9----|
A-7-7-7-7-7-7-7-7-7-7-7-7-7-7-7-7-|-9----7----7----|
E-5-5-5-5-5-5-5-5-----------------|-7----5---------|

Tap to rate this tab
 
# A B C D E F G H I J K L M N O P Q R S T U V W X Y Z