Song name
# A B C D E F G H I J K L M N O P Q R S T U V W X Y Z

Dwarves - Saturday Night tab

Chorus
E------------------------------------------------------------------------------|
B------------------------------------------------------------------------------|
G-------------------------------9x-9-9-9------------------------------9x-9-9-9-|
D-7x-7-7-7--4x-4-4-4--7x-7-7-7--9x-9-9-9-7x-7-7-7--9x-9-9-9--7x-7-77--9x-9-9-9-|
A-7x-7-7-7--4x-4-4-4--7x-7-7-7--7x-7-7-7-7x-7-7-7--9x-9-9-9--7x-7-7-7-7x-7-7-7-|
E-5x-5-5-5--2x-2-2-2--5x-5-5-5-----------5x-5-5-5--7x-7-7-7--5x-5-5-5----------|

Verse
E-----------------------------------------------------------------|
B-----------------------------------------------------------------|
G-----------------7-7-7-7-7-7-7-7-4-4-4-4-4-4-4-4-9-9-9-9-9-9-9-9-|
D-7-7-7-7-7-7-7-7-7-7-7-7-7-7-7-7-4-4-4-4-4-4-4-4-9-9-9-9-9-9-9-9-|
A-7-7-7-7-7-7-7-7-5-5-5-5-5-5-5-5-2-2-2-2-2-2-2-2-7-7-7-7-7-7-7-7-|
E-5-5-5-5-5-5-5-5-------------------------------------------------|

E-----------------------------------------------------------------|
B-----------------------------------------------------------------|
G---------------------------------9-9-9-9-9-9-9-9-----------------|
D-7-7-7-7-7-7-7-7-4-4-4-4-4-4-4-4-9-9-9-9-9-9-9-9-7-7-7-7-7-7-7-7-|
A-7-7-7-7-7-7-7-7-4-4-4-4-4-4-4-4-7-7-7-7-7-7-7-7-7-7-7-7-7-7-7-7-|
E-5-5-5-5-5-5-5-5-2-2-2-2-2-2-2-2-----------------5-5-5-5-5-5-5-5-|

Chorus
E------------------------------------------------------------------------------|
B-------------------------------------------------------------------------------|
G-------------------------------9x-9-9-9------------------------------9x-9-9-9-|
D-7x-7-7-7--4x-4-4-4--7x-7-7-7--9x-9-9-9-7x-7-7-7--9x-9-9-9--7x-7-77--9x-9-9-9-|
A-7x-7-7-7--4x-4-4-4--7x-7-7-7--7x-7-7-7-7x-7-7-7--9x-9-9-9--7x-7-7-7-7x-7-7-7-|
E-5x-5-5-5--2x-2-2-2--5x-5-5-5-----------5x-5-5-5--7x-7-7-7--5x-5-5-5----------|

Verse
E-----------------------------------------------------------------|
B-----------------------------------------------------------------|
G-----------------7-7-7-7-7-7-7-7-4-4-4-4-4-4-4-4-9-9-9-9-9-9-9-9-|
D-7-7-7-7-7-7-7-7-7-7-7-7-7-7-7-7-4-4-4-4-4-4-4-4-9-9-9-9-9-9-9-9-|
A-7-7-7-7-7-7-7-7-5-5-5-5-5-5-5-5-2-2-2-2-2-2-2-2-7-7-7-7-7-7-7-7-|
E-5-5-5-5-5-5-5-5-------------------------------------------------|

E-----------------------------------------------------------------|
B-----------------------------------------------------------------|
G---------------------------------9-9-9-9-9-9-9-9-----------------|
D-7-7-7-7-7-7-7-7-4-4-4-4-4-4-4-4-9-9-9-9-9-9-9-9-7-7-7-7-7-7-7-7-|
A-7-7-7-7-7-7-7-7-4-4-4-4-4-4-4-4-7-7-7-7-7-7-7-7-7-7-7-7-7-7-7-7-|
E-5-5-5-5-5-5-5-5-2-2-2-2-2-2-2-2-----------------5-5-5-5-5-5-5-5-|

Chorus
E------------------------------------------------------------------------------|
B------------------------------------------------------------------------------|
G-------------------------------9x-9-9-9------------------------------9x-9-9-9-|
D-7x-7-7-7--4x-4-4-4--7x-7-7-7--9x-9-9-9-7x-7-7-7--9x-9-9-9--7x-7-77--9x-9-9-9-|
A-7x-7-7-7--4x-4-4-4--7x-7-7-7--7x-7-7-7-7x-7-7-7--9x-9-9-9--7x-7-7-7-7x-7-7-7-|
E-5x-5-5-5--2x-2-2-2--5x-5-5-5-----------5x-5-5-5--7x-7-7-7--5x-5-5-5----------|

Solo
E-----------------------------------------------------------------|
B-----------------------------------------------------------------|
G-----------------7-7-7-7-7-7-7-7-4-4-4-4-4-4-4-4-9-9-9-9-9-9-9-9-|
D-7-7-7-7-7-7-7-7-7-7-7-7-7-7-7-7-4-4-4-4-4-4-4-4-9-9-9-9-9-9-9-9-|
A-7-7-7-7-7-7-7-7-5-5-5-5-5-5-5-5-2-2-2-2-2-2-2-2-7-7-7-7-7-7-7-7-|
E-5-5-5-5-5-5-5-5-------------------------------------------------|

E-----------------------------------------------------------------|
B-----------------------------------------------------------------|
G---------------------------------9-9-9-9-9-9-9-9-----------------|
D-7-7-7-7-7-7-7-7-4-4-4-4-4-4-4-4-9-9-9-9-9-9-9-9-7-7-7-7-7-7-7-7-|
A-7-7-7-7-7-7-7-7-4-4-4-4-4-4-4-4-7-7-7-7-7-7-7-7-7-7-7-7-7-7-7-7-|
E-5-5-5-5-5-5-5-5-2-2-2-2-2-2-2-2-----------------5-5-5-5-5-5-5-5-|

Chorus
E------------------------------------------------------------------------------|
B------------------------------------------------------------------------------|
G-------------------------------9x-9-9-9------------------------------9x-9-9-9-|
D-7x-7-7-7--4x-4-4-4--7x-7-7-7--9x-9-9-9-7x-7-7-7--9x-9-9-9--7x-7-77--9x-9-9-9-|
A-7x-7-7-7--4x-4-4-4--7x-7-7-7--7x-7-7-7-7x-7-7-7--9x-9-9-9--7x-7-7-7-7x-7-7-7-|
E-5x-5-5-5--2x-2-2-2--5x-5-5-5-----------5x-5-5-5--7x-7-7-7--5x-5-5-5----------|

E------------------------------------------------------------------------------|
B------------------------------------------------------------------------------|
G-------------------------------9x-9-9-9------------------------------9x-9-9-9-|
D-7x-7-7-7--4x-4-4-4--7x-7-7-7--9x-9-9-9-7x-7-7-7--9x-9-9-9--7x-7-77--9x-9-9-9-|
A-7x-7-7-7--4x-4-4-4--7x-7-7-7--7x-7-7-7-7x-7-7-7--9x-9-9-9--7x-7-7-7-7x-7-7-7-|
E-5x-5-5-5--2x-2-2-2--5x-5-5-5-----------5x-5-5-5--7x-7-7-7--5x-5-5-5----------|

Outro
E---------------------|---------------------|---------------------|
B---------------------|---------------------|---------------------|
G---------------------|---------------------|---------------------| just
D-7x-7-7-7--4x-4-4-4--|-7x-7-7-7--4x-4-4-4--|-7x-7-7-7--4x-4-4-4--| repeat
A-7x-7-7-7--4x-4-4-4--|-7x-7-7-7--4x-4-4-4--|-7x-7-7-7--4x-4-4-4--| and fade
E-5x-5-5-5--2x-2-2-2--|-5x-5-5-5--2x-2-2-2--|-5x-5-5-5--2x-2-2-2--|

Tap to rate this tab
# A B C D E F G H I J K L M N O P Q R S T U V W X Y Z