Song name
# A B C D E F G H I J K L M N O P Q R S T U V W X Y Z

Dwarves - Drugstore tab

Intro                 x2
E-----------------------|
B-----------------------|
G-2--2-2-2-2-2----------|
D-2--2-2-2-2-2--3-3-2-2-|
A-0--0-0-0-0-0--3-3-2-2-|
E---------------1-1-0-0-|

Verse                 x2                         
E-----------------------|-----------------------|
B-----------------------|-----------------------|
G-2--2-2-2-2-2----------|-2--2-2-2-2-2----------|
D-2--2-2-2-2-2--3-3-2-2-|-2--2-2-2-2-2--3-3-3-3-|
A-0--0-0-0-0-0--3-3-2-2-|-0--0-0-0-0-0--3-3-3-3-|
E---------------1-1-0-0-|---------------1-1-1-1-|

                      x3
E-----------------------|-----------------------|-----------------|
B-----------------------|-----------------------|-----------------|
G-2--2-2-2-2-2----------|-2--2-2-2-2-2----------|-2-2-2-2-2-2-2-2-|
D-2--2-2-2-2-2--3-3-2-2-|-2--2-2-2-2-2--3-3-3-3-|-2-2-2-2-2-2-2-2-|
A-0--0-0-0-0-0--3-3-2-2-|-0--0-0-0-0-0--3-3-3-3-|-0-0-0-0-0-0-0-0-|
E---------------1-1-0-0-|---------------1-1-1-1-|-----------------|

Chorus("I killed my mother...")   x2                   x2
E-----------------------------------|--------------------|
B-----------------------------------|--------------------|
G-----------------------------------|-9-9--1010-9-9-1010-|
D-3-3-3-3--5-5-5-5--7-7-7-7-7-7-7-7-|-9-9--1010-9-9-1010-|
A-3-3-3-3--5-5-5-5--7-7-7-7-7-7-7-7-|-7-7--8-8--7-7-8-8--|
E-1-1-1-1--3-3-3-3--5-5-5-5-5-5-5-5-|--------------------|

Verse                 x2                         
E-----------------------|-----------------------|
B-----------------------|-----------------------|
G-2--2-2-2-2-2----------|-2--2-2-2-2-2----------|
D-2--2-2-2-2-2--3-3-2-2-|-2--2-2-2-2-2--3-3-3-3-|
A-0--0-0-0-0-0--3-3-2-2-|-0--0-0-0-0-0--3-3-3-3-|
E---------------1-1-0-0-|---------------1-1-1-1-|

                      x3                      x2          x6 
E-----------------------|-----------------------|-----------|---|
B-----------------------|-----------------------|-----------|---|
G-2--2-2-2-2-2----------|-2--2-2-2-2-2----------|-9-9--1010-|-2-|
D-2--2-2-2-2-2--3-3-2-2-|-2--2-2-2-2-2--3-3-3-3-|-9-9--1010-|-2-|
A-0--0-0-0-0-0--3-3-2-2-|-0--0-0-0-0-0--3-3-3-3-|-7-7--8-8--|-0-|
E---------------1-1-0-0-|---------------1-1-1-1-|-----------|---|
Tap to rate this tab
# A B C D E F G H I J K L M N O P Q R S T U V W X Y Z