Song name
# A B C D E F G H I J K L M N O P Q R S T U V W X Y Z

Dwarves - Fuck Em All tab

Main Riff
E------------------------------------|
B------------------------------------|
G----------------------------------7-|
D-7--101010--7--101010-7--101010-5-7-|
A-7--101010--7--101010-7--101010-5-5-|
E-5--8-8-8---5--8-8-8--5--8-8-8--3---|

Verse                           x2
E---------------------------------|---------------------------------|
B---------------------------------|---------------------------------|
G-5-5-5-5-5-5-5-5-5-5-5-5-5-5-5-5-|-7-7-7-7-7-7-7-7-9-9-9-9-9-9-9-9-|
D-5-5-5-5-5-5-5-5-5-5-5-5-5-5-5-5-|-7-7-7-7-7-7-7-7-9-9-9-9-9-9-9-9-|
A-3-3-3-3-3-3-3-3-3-3-3-3-3-3-3-3-|-5-5-5-5-5-5-5-5-7-7-7-7-7-7-7-7-|
E-pm------------------------------|---------------------------------|

Bridge
E--------------------------------------------------------------------|
B--------------------------------------------------------------------|
G-7-7-7-7-7-7-7-7-------------------7-7-7-7-7-7-7-7--9-9-9-9-9-9-9-9-|
D-7-7-7-7-7-7-7-7--7-7-7-7-7-7-7-7--7-7-7-7-7-7-7-7--7-9-9-9-9-9-9-9-|
A-5-5-5-5-5-5-5-5--7-7-7-7-7-7-7-7--5-5-5-5-5-5-5-5--7-7-7-7-7-7-7-7-|
E------------------5-5-5-5-5-5-5-5-----------------------------------|


Order:

Main   x2
Verse  x1
Main   x2
Verse  x1
Main   x2
Bridge x1
Main   x4
Verse  x1
Main   x4
Tap to rate this tab
 
# A B C D E F G H I J K L M N O P Q R S T U V W X Y Z