Song name
# A B C D E F G H I J K L M N O P Q R S T U V W X Y Z

Dwarves - Smack City tab

Verse
E-----------------|
B-----------------|
G---------5-5-5-5-|
D-5--5-5--5-5-5-5-|
A-5--5-5--3-3-3-3-|
E-3--3-3----------|

Chorus
E----------------------------------------------------------------------|
B----------------------------------------------------------------------|
G-6-6-6-6-6-6-6-6--3-3-3-3-3-3-3-3-------------------------------------|
D-6-6-6-6-6-6-6-6--3-3-3-3-3-3-3-3--3-3-3-3-3-3-3-3--5-5-5-5-5-5-5-5-5-|
A-4-4-4-4-4-4-4-4--1-1-1-1-1-1-1-1--3-3-3-3-3-3-3-3--5-5-5-5-5-5-5-5-5-|
E-----------------------------------1-1-1-1-1-1-1-1--3-3-3-3-3-3-3-3-3-|

E---------------------------------------------------|
B---------------------------------------------------|
G-6-6-6-6-6-6-6-6--5-5-5-5-5-5-5-5----------5-5-5-5-|
D-6-6-6-6-6-6-6-6--3-3-3-3-3-3-3-3--5--5-5--5-5-5-5-|
A-4-4-4-4-4-4-4-4--1-1-1-1-1-1-1-1--5--5-5--3-3-3-3-|
E-----------------------------------3--3-3----------|

Solo (Behind)
E-----------------|
B-----------------|
G---------5-5-5-5-|
D-5--5-5--5-5-5-5-|
A-5--5-5--3-3-3-3-|
E-3--3-3----------|

Outro                      or 
E-------------------------|-6-6-6-6-6-6-6-6-6-6-6-6-6-|
B-------------------------|-6-6-6-6-6-6-6-6-6-6-6-6-6-|
G-------------------------|---------------------------|
D-5-5-5-5-5-5-5-5-5-5-5-5-|---------------------------|
A-5-5-5-5-5-5-5-5-5-5-5-5-|---------------------------|
E-3-3-3-3-3-3-3-3-3-3-3-3-|---------------------------|

Listen for Order
Tap to rate this tab
# A B C D E F G H I J K L M N O P Q R S T U V W X Y Z