Song name
# A B C D E F G H I J K L M N O P Q R S T U V W X Y Z

Dwarves - Sfvd tab

Intro (Bass Only)

Verse                               x2
E------------------------------------|
B------------------------------------|
G------------------------------------|
D-7-7-7-7-7-7-7-7-7--5-5-5-5-7-7-7-7-|
A-7-7-7-7-7-7-7-7-7--5-5-5-5-7-7-7-7-|
E-5-5-5-5-5-5-5-5-5--3-3-3-3-5-5-5-5-|

Chorus
E------------------------------------|------------------------------------|
B------------------------------------|------------------------------------|
G-7-7-7-7----------------------------|-7-7-7-7----------------------------|
D-7-7-7-7--7-7-7-7--5-5-5-5--7-7-7-7-|-7-7-7-7--7-7-7-7--5-5-5-5--2-2-2-2-|
A-5-5-5-5--7-7-7-7--5-5-5-5--7-7-7-7-|-5-5-5-5--7-7-7-7--5-5-5-5--2-2-2-2-|
E----------5-5-5-5--3-3-3-3--5-5-5-5-|----------5-5-5-5--3-3-3-3--0-0-0-0-|

Bridge
E---------------------------------|
B---------------------------------|
G---------------------------------|
D-7-7-7-7-7-7-7-7\7-7-7-7-7-7-7-7-|
A-7-7-7-7-7-7-7-7\7-7-7-7-7-7-7-7-|
E-5-5-5-5-5-5-5-5\5-5-5-5-5-5-5-5-|

Verse                               
E------------------------------------|------------------------------------|
B------------------------------------|------------------------------------|
G------------------------------------|----------------------------9-9-9-9-|
D-7-7-7-7-7-7-7-7-7--5-5-5-5-7-7-7-7-|-7-7-7-7-7-7-7-7-7--5-5-5-5-9-9-9-9-|
A-7-7-7-7-7-7-7-7-7--5-5-5-5-7-7-7-7-|-7-7-7-7-7-7-7-7-7--5-5-5-5-7-7-7-7-|
E-5-5-5-5-5-5-5-5-5--3-3-3-3-5-5-5-5-|-5-5-5-5-5-5-5-5-5--3-3-3-3---------|

Chorus
E------------------------------------|------------------------------------|
B------------------------------------|------------------------------------|
G-7-7-7-7----------------------------|-7-7-7-7----------------------------|
D-7-7-7-7--7-7-7-7--5-5-5-5--7-7-7-7-|-7-7-7-7--7-7-7-7--5-5-5-5--2-2-2-2-|
A-5-5-5-5--7-7-7-7--5-5-5-5--7-7-7-7-|-5-5-5-5--7-7-7-7--5-5-5-5--2-2-2-2-|
E----------5-5-5-5--3-3-3-3--5-5-5-5-|----------5-5-5-5--3-3-3-3--0-0-0-0-|

Outro
E---------------------------------|
B---------------------------------|
G---------------------------------|
D-7-7-7-7-7-7-7-7\7-7-7-7-7-7-7-7-|
A-7-7-7-7-7-7-7-7\7-7-7-7-7-7-7-7-|
E-5-5-5-5-5-5-5-5\5-5-5-5-5-5-5-5-|
Tap to rate this tab
 
# A B C D E F G H I J K L M N O P Q R S T U V W X Y Z