Song name
# A B C D E F G H I J K L M N O P Q R S T U V W X Y Z

Dwarves - Skin Popping Slut tab

Verse                            x4 
E----------------------------------|---------------------------------|
B----------------------------------|---------------------------------|
G----------------------------------|---------------------------------|
D-7-7-7-7--5-5-5-5-2-2-2-2-2-2-2-2-|-7-7-5-5-3-3-5-5-7-7-5-5-3-3-5-5-|
A-7-7-7-7--5-5-5-5-2-2-2-2-2-2-2-2-|-7-7-5-5-3-3-5-5-7-7-5-5-3-3-5-5-|
E-5-5-5-5--3-3-3-3-0-0-0-0-0-0-0-0-|-5-5-3-3-1-1-3-3-5-5-3-3-1-1-3-3-|

Verse 2                          x4                x3
E----------------------------------|-----------------|
B----------------------------------|-----------------|
G----------------------------------|-----------------|
D-7-7-7-7--5-5-5-5-2-2-2-2-2-2-2-2-|-7-7-5-5-3-3-5-5-|
A-7-7-7-7--5-5-5-5-2-2-2-2-2-2-2-2-|-7-7-5-5-3-3-5-5-|
E-5-5-5-5--3-3-3-3-0-0-0-0-0-0-0-0-|-5-5-3-3-1-1-3-3-|

Interlude (what hewhoplays...)                     ("well, I'm Just a slut")
E----------------------------------------------------|
B----------------------------------------------------|
G----------------------------------------------------|
D----------------------------------------------------|
A-5-5/6-6/7-7/8-8/9-9/1010/1111/-12-12/13-13/14-14---|
E-3-3/4-4/5-5/6-6/7-7/8-8-/9-9-/-10-10/11-11/12-12---|

Outro           x6
E-----------------|---------------------|
B-----------------|---------------------|
G-----------------|---------------------|
D---------5-5-5-5-|-7-7-7-7--5-5-5-5-2--|
A---1-3-1-5-5-5-5-|-7-7-7-7--5-5-5-5-2--|
E-3-------3-3-3-3-|-5-5-5-5--3-3-3-3-0--|
Tap to rate this tab
 
# A B C D E F G H I J K L M N O P Q R S T U V W X Y Z