Dwarves - Like You Want tab

Main Riff
E------------------------|
B------------------------|
G------------------------|
D-2--5-2--5-2--5---5---5-|
A-2--5-2--5-2--5---5---5-|
E-0--3-0--3-0--3-0-3-0-3-|

Verse
E--------------------------------|------------------------|
B--------------------------------|------------------------|
G--------------------------------|------------------------|
D-2--2-2-2-2-2-2--7--7-7-7-7-7-7-|-2--5-2--5-2--5---5---5-|
A-2--2-2-2-2-2-2--7--7-7-7-7-7-7-|-2--5-2--5-2--5---5---5-|
E-0--0-0-0-0-0-0--5--5-5-5-5-5-5-|-0--3-0--3-0--3-0-3-0-3-|

E--------------------------------|---------------------------------|
B--------------------------------|---------------------------------|
G--------------------------------|---------------------------------|
D-2--2-2-2-2-2-2--7--7-7-7-7-7-7-|-9-9-9-9-9-9-9-9-9-9-9-9-9-9-9-9-|
A-2--2-2-2-2-2-2--7--7-7-7-7-7-7-|-9-9-9-9-9-9-9-9-9-9-9-9-9-9-9-9-|
E-0--0-0-0-0-0-0--5--5-5-5-5-5-5-|-7-7-7-7-7-7-7-7-7-7-7-7-7-7-7-7-|


Pre-Chorus/Chorus
E--------------------------------|--------------------------------|
B--------------------------------|--------------------------------|
G-9-9-9-9-9-9-9-9-9-2------------|--------------------------------|
D-9-9-9-9-9-9-9-9-9-2------------|-2--2-2-2-2-2-2--9--9-9-9-9-9-9-|
A-7-7-7-7-7-7-7-7-7-0------------|-2--2-2-2-2-2-2--9--9-9-9-9-9-9-|
E--------------------------------|-0--0-0-0-0-0-0--7--7-7-7-7-7-7-|

That's it just listen for order. 

Tap to rate this tab
 
# A B C D E F G H I J K L M N O P Q R S T U V W X Y Z