Song name
# A B C D E F G H I J K L M N O P Q R S T U V W X Y Z

Dwarves - Anybody Out There tab

Intro                   x4
E-------------------------|
B-------------------------|
G-------------------------|
D-------------------------|
A-5-5-5-6-6-6-5-5-5-3-3-3-|
E-3-3-3-3-3-3-3-3-3-3-3-3-|

Verse                   x2
E-------------------------|-------------|
B-------------------------|-------------|
G-------------------------|-3-----------|
D-------------------------|-3-----------|
A-5-5-5-6-6-6-5-5-5-3-3-3-|-1-----------|
E-3-3-3-3-3-3-3-3-3-3-3-3-|-------------|

                        x2
E-------------------------|-------------|
B-------------------------|-------------|
G-------------------------|-3-----------|
D-------------------------|-3-----------|
A-5-5-5-6-6-6-5-5-5-3-3-3-|-1-----------|
E-3-3-3-3-3-3-3-3-3-3-3-3-|-------------|

E--------------------------|---------------------------|
B--------------------------|---------------------------|
G--------------------------|---------------------------|
D--------------------------|-3-3-3-3-3-3-3-3-3-3-3-3-3-|
A-5-5-5-6-6-6-5-5-5-3-3-3--|-3-3-3-3-3-3-3-3-3-3-3-3-3-|
E-3-3-3-3-3-3-3-3-3-3-3-3--|-1-1-1-1-1-1-1-1-1-1-1-1-1-|

E--------------------------|---------------------------|
B--------------------------|---------------------------|
G--------------------------|---------------------------|
D--------------------------|-3-3-3-3-3-3-3-3-3-3-3-3-3-|
A-5-5-5-6-6-6-5-5-5-3-3-3--|-3-3-3-3-3-3-3-3-3-3-3-3-3-|
E-3-3-3-3-3-3-3-3-3-3-3-3--|-1-1-1-1-1-1-1-1-1-1-1-1-1-|


Solo/Bridge part
E---------------------------------------|
B---------------------------------------|
G-3-3-3-0---3-3-3-0---3-3-3-0---3-5bend-|
D---------------------------------------|
A---------------------------------------|
E---------------------------------------|

Listen for the order
Tap to rate this tab
 
# A B C D E F G H I J K L M N O P Q R S T U V W X Y Z