Song name
# A B C D E F G H I J K L M N O P Q R S T U V W X Y Z

Dwarves - What Hit You tab

Verse
E-------------------------------|
B-------------------------------|
G-------------------------------|
D-5-5-5--7-7-7--9-9-9-9-9-9-9-9-|
A-5-5-5--7-7-7--9-9-9-9-9-9-9-9-|
E-3-3-3--5-5-5--7-7-7-7-7-7-7-7-|


Chorus
E----------------------------------|---------------------------|
B----------------------------------|---------------------------|
G-------------------7-7-7-7--9-9-9-|---------------------------|
D-9-9-9-9--7-7-7-7--7-7-7-7--9-9-9-|-9-9-9-9--7-7-7-7--9-9-9-9-|
A-9-9-9-9--7-7-7-7--5-5-5-5--7-7-7-|-9-9-9-9--7-7-7-7--9-9-9-9-|
E-7-7-7-7--5-5-5-5-----------------|-7-7-7-7--5-5-5-5--7-7-7-7-|

listen for order 
Tap to rate this tab
 
# A B C D E F G H I J K L M N O P Q R S T U V W X Y Z