Dwarves - I Want You To Die tab

Intro
E----------------------------|
B----------------------------|
G-5-5--5-4-4--4-2--2-2-2-2-2-|
D-5-5--5-4-4--4-2--2-2-2-2-2-|
A-3-3--3-2-2--2-0--0-0-0-0-0-|
E----------------------------|

Verse                      x2                                x2
E----------------------------|---------------------------------|
B----------------------------|---------------------------------|
G-5-5--5-4-4--4-2--2-2-2-2-2-|---------------------------------|
D-5-5--5-4-4--4-2--2-2-2-2-2-|-3-3-3-3-3-3-3-3-5-5-5-5-5-5-5-5-|
A-3-3--3-2-2--2-0--0-0-0-0-0-|-3-3-3-3-3-3-3-3-5-5-5-5-5-5-5-5-|
E----------------------------|-1-1-1-1-1-1-1-1-3-3-3-3-3-3-3-3-|

                           x2                                x2
E----------------------------|---------------------------------|
B----------------------------|---------------------------------|
G-5-5--5-4-4--4-2--2-2-2-2-2-|---------------------------------|
D-5-5--5-4-4--4-2--2-2-2-2-2-|-3-3-3-3-3-3-3-3-5-5-5-5-5-5-5-5-|
A-3-3--3-2-2--2-0--0-0-0-0-0-|-3-3-3-3-3-3-3-3-5-5-5-5-5-5-5-5-|
E----------------------------|-1-1-1-1-1-1-1-1-3-3-3-3-3-3-3-3-|

Bridge                                                      x3
E-----------------------|-----------------------|-------------|-------|
B-----------------------|-----------------------|-------------|-------|
G----------------5--5-5-|----------------7--7-7-|-------------|-------|
D-7--7-7--5--5-5-5--5-5-|-7--7-7--5--5-5-7--7-7-|-7-7-7-5-5-5-|-3-3-3-|
A-7--7-7--5--5-5-3--3-3-|-7--7-7--5--5-5-5--5-5-|-7-7-7-5-5-5-|-3-3-3-|
E-5--5-5--3--3-3--------|-5--5-5--3--3-3--------|-5-5-5-3-3-3-|-1-1-1-|

Outro (just listen to know when you srtum and stop the notes)
E----------------------------|----------------------------|
B----------------------------|----------------------------|
G-5-5--5-4-4--4-2--2-2-2-2-2-|-5------4------2------------|
D-5-5--5-4-4--4-2--2-2-2-2-2-|-5------4------2------------|
A-3-3--3-2-2--2-0--0-0-0-0-0-|-3------2------0------------|
E----------------------------|----------------------------|



Listen for order
Tap to rate this tab
 
# A B C D E F G H I J K L M N O P Q R S T U V W X Y Z