Song name
# A B C D E F G H I J K L M N O P Q R S T U V W X Y Z

Dwarves - Better Be Women tab

-------------------------------------------------------------------------------
			BETTER BE WOMEN - The Dwarves
-------------------------------------------------------------------------------

Tabbed by Andrew Cannell
E-mail: deathless_one@hotmail.com

Tuning: Standard

Intro/Chorus
|----------------|
|----------------|
|9-------6-------|
|9-------6---6---|
|7-------4---6---|
|------------4---|

Verse
|----------------|----------------|----------------|
|----------------|----------------|----------------|
|--------4-------|6---------------|6-------7-------|
|2-------4-------|6-------6-------|6-------7-------|
|2-------2-------|4-------6-------|4-------5-------|
|0---------------|--------4-------|----------------|
Play bar 1 & 2 then Bars 1 & 3
Bar 1 & 2 Have on and off PMing - Bar 1 & 3 NO PMing

Prechorus
|--------|  |----------------|
|--------|  |----------------|
|2---4---|  |2-------4-------|
|2---4---|x2|2-------4-------|
|0---2---|  |0-------2-------|
|--------|  |----------------|

Chorus x 3

Post Chorus
|----------------|
|----------------|
|9-------6---7---|
|9-------6---7---|
|7-------4---5---|
|----------------|

(Solo - I'll try to get it for you all)

Guitar 2(During Solo)
|----------------|
|----------------|
|6-------7-------|
|6-------7-------|
|4-------5-------|
|----------------|

Repeat Everything in the same order then:
Guitar 1(Playing this alone for a bit)
|-----------|
|-----------|
|9----------|
|9----------|
|7----------|
|-----------|

Guitar 2(Comes in a little bit after)
|----------------|
|----------------|
|9---6---2---7---|
|9---6---2---7---|
|7---4---0---5---|
|----------------|

Chorus x3
Post-Chorus

Fade out on the Chorus
Tap to rate this tab
# A B C D E F G H I J K L M N O P Q R S T U V W X Y Z