Song name
# A B C D E F G H I J K L M N O P Q R S T U V W X Y Z

Dwarves - Christ On A Mic tab

Christ On a Mic by Dwarves
Tabbed by Franco SeLf (francoself@hotmail.com)


e|---------------------------------|
B|---------------------------------|
G|-44------------------------------|
D|-44-55-77-88---------------------|        Repeat
A|-22-55-77-88---------------------|
E|----33-55-66---------------------|


and then


e|---------------------------------|
B|---------------------------------|
G|-222-33-22-----------------------|
D|-222-33-22-----------------------|
A|-000-11-00-----------------------|
E|---------------------------------|
Tap to rate this tab
# A B C D E F G H I J K L M N O P Q R S T U V W X Y Z