Song name
# A B C D E F G H I J K L M N O P Q R S T U V W X Y Z

Dwarves - River City tab

-------------------------------------------------------------------------------
River City - The Dwarves
Come Clean
-------------------------------------------------------------------------------
Tabbed by: axeslash
Email: holmzito@yahoo.com

Tuning: Guitar 1 - EADGBE
        Guitar 2 - EADGBE

Guitar 1
e|---------------------------------|
B|---------------------------------|
G|---------------------------------|
D|-------------------------5-7-5---|
A|-7-7-7-7-7-7-7-7-7-7-7-7-3-5-3-5-|
E|-5-5-5-5-5-5-5-5-5-5-5-5-------3-| x2
Guitar 2:
e|---------------------------------|
B|---------------------------------|
G|---------------------------------|
D|-------------------------5-7-5---|
A|-------------------------3-5-3-5-|
E|-------------------------------3-| x2

Guitar 1 + 2:
e|---------------------------------|
B|---------------------------------|
G|---------------------------------|
D|-----------------9-9-9-9-5-7-5---|
A|-7-7-7-7-7-7-7-7-7-7-7-7-3-5-3-5-|
E|-5-5-5-5-5-5-5-5---------------3-| x4

Guitar 1 + 2
e|-----------------------------------------|
B|-----------------------------------------|
G|-----------------------------------------|
D|-10-10-10-10-10-10-10-10-----------------|
A|--8--8--8--8--8--8--8--8-7-7-7-7-7-7-7-7-|
E|-------------------------5-5-5-5-5-5-5-5-| x2

Guitar 1 + 2:
e|---------------------------------|
B|---------------------------------|
G|---------------------------------|
D|-----------------9-9-9-9-5-7-5---|
A|-7-7-7-7-7-7-7-7-7-7-7-7-3-5-3-5-|
E|-5-5-5-5-5-5-5-5---------------3-| x4

e|-----------------------------------------|
B|-----------------------------------------|
G|-----------------------------------------|
D|-10-10-10-10-10-10-10-10-----------------|
A|--8--8--8--8--8--8--8--8-7-7-7-7-7-7-7-7-|
E|-------------------------5-5-5-5-5-5-5-5-| x2

e|-----------------------------------|
B|-----------------------------------|
G|-----------------------------------|
D|-5-5-5-5-5-5-5-5-5-9-9-9-9-9-9-9-9-|
A|-3-3-3-3-3-3-3-3-3-7-7-7-7-7-7-7-7-|
E|-----------------------------------| x2

Guitar 1:
e|--------------------------------------------|
B|-17-17-17-17----17-17-17--17-17-17-17-17-17-|
G|-20^20-20^20^---20^20^20^-20-20-20-20-20-20-|
D|--------------------------------------------|
A|--------------------------------------------|
E|--------------------------------------------| x2
Guitar 2:
e|---------------------------------|
B|---------------------------------|
G|---------------------------------|
D|-------------------------5-7-5---|
A|-7-7-7-7-7-7-7-7-7-7-7-7-3-5-3-5-|
E|-5-5-5-5-5-5-5-5-5-5-5-5-------3-| x2

Guitar 1:
e|-18-18-18-18-18-18-18-18-18-18-18-18-18-18-18-18-|
B|-17-17-17-17-17-17-17-17-17-17-17-17-17-17-17-17-|
G|-------------------------------------------------|
D|-------------------------------------------------|
A|-------------------------------------------------|
E|-------------------------------------------------|
Guitar 2:
e|---------------------------------|
B|---------------------------------|
G|---------------------------------|
D|-------------------------5-7-5---|
A|-7-7-7-7-7-7-7-7-7-7-7-7-3-5-3-5-|
E|-5-5-5-5-5-5-5-5-5-5-5-5-------3-| 

Guitar 1:
e|--------------------------------|
B|-17^----17^----17^----17-18^w---|
G|--------------------------------|
D|--------------------------------|
A|--------------------------------|
E|--------------------------------|
Guitar 2:
e|---------------------------------|
B|---------------------------------|
G|---------------------------------|
D|-------------------------5-7-5---|
A|-7-7-7-7-7-7-7-7-7-7-7-7-3-5-3-5-|
E|-5-5-5-5-5-5-5-5-5-5-5-5-------3-| 

Guitar 1 + 2
e|-----------------------------------------|
B|-----------------------------------------|
G|-----------------------------------------|
D|-10-10-10-10-10-10-10-10-----------------|
A|--8--8--8--8--8--8--8--8-7-7-7-7-7-7-7-7-|
E|-------------------------5-5-5-5-5-5-5-5-| x3

Guitar 1 + 2
e|----------------------------------------------------|
B|----------------------------------------------------|
G|----------------------------------------------------|
D|-10-10-10-10-10-10-10-10-----------------5-7-5------|
A|--8--8--8--8--8--8--8--8-7-7-7-7-7-7-7-7-3-5-3-7----|
E|-------------------------5-5-5-5-5-5-5-5-------5----|

| ^w  whole note bend
| ^  half note bend 
| /  slide up
| \  slide down
| h  hammer-on
| p  pull-off
| ~  vibrato
| +  harmonic
| x  Mute note
===============================================================================
Tap to rate this tab
 
# A B C D E F G H I J K L M N O P Q R S T U V W X Y Z