Song name
# A B C D E F G H I J K L M N O P Q R S T U V W X Y Z

Dweeb - Pirate Copse Quandry tab

Hey, most f you probably wouldn't have heard this band before, they're
a christian band and all of heir songs are metaphorical. So yeh, if you
havnt heard them, give 'em a try.

Tuning, Low To High = EADGBe

Intro/Verse
E|-----------------------------------------------|
B|-----------------------------------------------|
G|-----------------------------------------------|
D|-1111-1111-1010-1010-10-13-13--13-13-1111-1111-|
A|--9-9--9-9--8-8--8-8--8-11-11--11-11--9-9--9-9-|
E|-----------------------------------------------|

Bridge   "Receive the mallard..."
E|--------------|
B|--------------|
G|-11-----------|
D|-11--(strum)--|
A|--9-----------|
E|--------------|

Pre-Chorus - Not too sre about the first E chord
E|---------------------------------------------|
B|---------------------------------------------|
G|------666-8-88---------1010-12-12-1212-------|
D|--2-2-xxx-x-xx-4-4--2-2-x-x--x--x--x-x-44-66-| X2
A|--2-2-444-6-66-4-4--2-2-8-8-10-10-1010-44-66-|
E|--0-0----------2-2--0-0----------------22-44-|

Chorus
E|------------------77-6-6-99-4-4---------------------------------|
B|----------------------------------------------------------------|
G|-4-4-4-4-4-4-4-4----------------4-4-4-4-4-4-4-4-6-6-6-6-6-6-6-6-|
D|-4-4-4-4-4-4-4-4----------------4-4-4-4-4-4-4-4-6-6-6-6-6-6-6-6-| X2
A|-2-2-2-2-2-2-2-2----------------2-2-2-2-2-2-2-2-4-4-4-4-4-4-4-4-|
E|----------------------------------------------------------------|

Verse
Bridge
Pre-chorus
Chorus
Bass Interlude - "I'm a pirate..."
Chorus
Outro - Still figuring it out

Well there ya go, another amazing song by anoter amazing Christian band.
Please rate it, and let me know if you've got any corrections for me please
at time-to-start-a-fire@hotmail.co.uk
Tap to rate this tab
 
# A B C D E F G H I J K L M N O P Q R S T U V W X Y Z