Song name
# A B C D E F G H I J K L M N O P Q R S T U V W X Y Z

Dweeb - Shine-o-matic tab

Help us improve GuitareTab! Take a short survey!
Hey, this is like, my second favoutrite song by the band, the other one being the other 
i posted! So yeh, here we go:

I'm doing a two guitar version, but if you prefer to use one guitar, just folow the line 
guitar 1

Guitar 1: Intro/Verse: Clean (repeat until the bass comes in with the pre-chorus)
E|-----------------------------------------|
B|-----------------------------------------|
G|-----5-3~------3-5~----------------------|
D|---3~--------3~---------6-4~------6-4~---|
A|-1~--------1~---------4~--------4~-------|
E|--------------------2~--------2~---------|

Guitar 1: pre-Chorus: Distortion
E|------------------------|
B|------------------------|
G|------------------------|
D|-------------------3b---|
A|------------------------|
E|-11-4-11-4-11-4-11------|

Guitar 2: Pre-chorus: Distortion
E|------------------------|
B|------------------------|
G|------------------------|
D|-33-6-33-6-33-6-33-3b---|
A|-33-6-33-6-33-6-33------|
D|-33-6-33-6-33-6-33------|

Guitar 1: Chorus: Distortion
E|-----------------------------------------------------------------|
B|-----------------------------------------------------------------|
G|-----------------6-6-6-6-6-6-6-6-----------------6-6-6-6-5-5-5-5-|
D|-3-3-3-3-6-6-6-6-6-6-6-6-6-6-6-6-3-3-3-3-6-6-6-6-6-6-6-6-5-5-5-5-|
A|-3-3-3-3-6-6-6-6-4-4-4-4-4-4-4-4-3-3-3-3-6-6-6-6-4-4-4-4-3-3-3-3-|
E|-1-1-1-1-4-4-4-4-----------------1-1-1-1-4-4-4-4-----------------|

Guitar 2: Chorus: Distortion
E|-----------------------------------------------------------------|
B|-----------------------------------------------------------------|
G|-----------------6-6-6-6-6-6-6-6-----------------6-6-6-6-5-5-5-5-|
D|-3-3-3-3-6-6-6-6-6-6-6-6-6-6-6-6-3-3-3-3-6-6-6-6-6-6-6-6-5-5-5-5-|
A|-3-3-3-3-6-6-6-6-4-4-4-4-4-4-4-4-3-3-3-3-6-6-6-6-4-4-4-4-3-3-3-3-|
D|-3-3-3-3-6-6-6-6-----------------3-3-3-3-6-6-6-6-----------------|

Verse, Same, but strum the chords randomly, listen to the song, you'll know what I mean.

Pre-chorus
Chorus

Bridge: Guitar 1: Distorion: not too sure but it fits: Palm mute until drums come in:
E|----------------------------|
B|----------------------------|
G|-10-8-----------------------|
D|------8-6-------------------|
A|----------6-4--6--4--4------|
E|------------------------4-2-|

Chorus
Pre-chorus

There ya go, enjoy :)
Related for Shine-o-matic tab