Song name
# A B C D E F G H I J K L M N O P Q R S T U V W X Y Z

Dwight Yoakam - Suspicious Minds tab

Capo 4th fret

e-----2-32-0-2---------2-32-0-2---------2-32-0-2---e
B---3----------3-----3----------3-----3----------3-B
G-2----------------2----------------2--------------G
D--------------------------------------------------D
A--------------------------------------------------A
E--------------------------------------------------E


e-----2-32-0-2---------2-32-0-2---------2-32-0-2---e
B---3----------3-----3----------3-----3----------3-B
G-2----------------2----------------2--------------G
D--------------------------------------------------D
A--------------------------------------------------A
E--------------------------------------------------E

Tap to rate this tab
# A B C D E F G H I J K L M N O P Q R S T U V W X Y Z