Song name
# A B C D E F G H I J K L M N O P Q R S T U V W X Y Z

Dwight Yoakam - South Of Cincinnati tab

Intro : G C G

CHORUS :

       G         D       C     G
If you ever get south of Cincinnati
C               D            G     D    
Down where the dogwood trees grow
       G        D            C     G
If you ever get south of the Mason Dixon
       C         D            G     
To the home you left so long ago
       G         D           C    G
If you ever get south of the Ohio River
C          D           G     D    
Down where Dixieland begins
       G         D       C     G
If you ever get south of Cincinnati
C       D       G    C  G
I'll be yours again

                G              C            G
She pulled the letter from the pages of her Bible
      G               D               G
And a rose pressed inside the Book of Luke
             G                      C               G
For fourteen years she'd write each day but keep it hidden
            G             D                  G
Refused to even speak his name but still she wrote

Instrumental - 

e|------------3--|-7---------7h8h-|-5---------5h7h5-|-3-------3-----|
B|------3--5-----|----------------|-----------------|------------5--|
G|---------------|----------------|-----------------|---------------|
D|---------------|----------------|-----------------|---------------|
A|---------------|----------------|-----------------|---------------|
E|---------------|----------------|-----------------|---------------|

e|------3--------|-------3--------|--2--3-----3-5-7-|-10--9-10----3-|
B|--3-------3----|--5--------3----|-----------------|----------3-5--|
G|---------------|----------------|-----------------|---------------|
D|---------------|----------------|-----------------|---------------|
A|---------------|----------------|-----------------|---------------|
E|---------------|----------------|-----------------|---------------|

e|------------3--|-7---------7h8h-|-5---------5h7h5-|-3-------3-----|
B|------3--5-----|----------------|-----------------|------------5--|
G|---------------|----------------|-----------------|---------------|
D|---------------|----------------|-----------------|---------------|
A|---------------|----------------|-----------------|---------------|
E|---------------|----------------|-----------------|---------------|

e|------3--------|-------3--------|--2-----3----5---|-5h7h5--3------|
B|--3-------3----|--5--------3----|-----------------|---------------|
G|---------------|----------------|-----------------|---------------|
D|---------------|----------------|-----------------|---------------|
A|---------------|----------------|-----------------|---------------|
E|---------------|----------------|-----------------|---------------|

repeat Verse, Chorus Instrumental

Peace out x
Tap to rate this tab
# A B C D E F G H I J K L M N O P Q R S T U V W X Y Z