Song name
# A B C D E F G H I J K L M N O P Q R S T U V W X Y Z

Dwight Yoakam - Trying tab

Dwight Yoakam
Trying
From "3 Pears"
Tabbed by thatchadmiller (Twitter)


Intro (bass)
e|----------------------------------------------------------------|
B|----------------------------------------------------------------|
G|----------------------------------------------------------------|
D|---------2-------0h2h4-4-2--------------------------------------|
A|--0--2-4----4---------------------------------------------------|
E|--------------2-------------------------------------------------|



Verse 1
A                       F#m (throw in an F#sus4 on the F#m's)
I've been trying for so long
A                       F#m
And this trying just goes on
A                       F#m
As I keep trying to hold on
      D            E
To my heart, To my heart


Verse 2
A                         F#m
I've been waiting here for you
A                            F#m
And that waiting still ain't through
A                            F#m
It's waiting for what the end may do
      D            E            A   A7
To my heart, To my heart, To my heart


Chorus
D                            A  A7
You and I could still try to be
D                                 E   E7
Every hope and wish we dared to dream


Verse 3
So I keep trying every day
And hurt from trying gets in my way
That's the part I just try not to say
To my heart, To my heart, To my heart


Solo over Verse 2 chords
   A           F#m            D          E           A       A7         D
                                                                    (Chorus) 
e|--------------------------------------------------------------------------|
B|--------------------------------------------------------------------------|
G|--------------------------------------------------------------------------|
D|---------0-2-----------x2---0--0-4-2---2---2-0-------------------0-2------|
A|--4--4-4-----------------------------4---------4-2-0----0-2-4~~~----------|
E|-------------2---2-2-0----------------------------------------------------|
(This isn't note for note, esp the first part. Just
play along with it and fill in.)


Chorus 

Verse 1
(play the solo part to fill in here)



If you have any input or corrections, hit me up on Twitter and let me know
if you have any songs you need help with. God bless!
Tap to rate this tab
 
# A B C D E F G H I J K L M N O P Q R S T U V W X Y Z