Song name
# A B C D E F G H I J K L M N O P Q R S T U V W X Y Z

Dwight Yoakam - Dwight Yoakim tab

  M.M. = 100
|----------------------^2-^2-^2-^2-^2-^2-^2-|------------------------------------|
|----------------------^3-^3-^3-^3-^3-^3-^3-|------------------------------------|
|----------------------^2-^2-^2-^2-^2-^2-^2-|--------------^0-^0-^0-^0-^0-^0-^0--|
|-----0-/4-0-----0--------------------------|-/4--2--0-----^2-^2-^2-^2-^2-^2-^2--|
|-0-2-------2p-0----------------------------|--------------^2-^2-^2-^2-^2-^2-^2--|
|-------------------------------------------|-----------0--^0-^0-^0-^0-^0-^0-^0--|

|--------------------------------------------------------------^2-^2--|
|--------------------------------------------------------------^3-^3--|
|--------------------------------------------------------------^2-^2--|
|-/4-4-2p-0---------------0-----0-----0--------0-/4-2---0---0---------|
|---------------------0-h2--0-h2--0-h2---0-0-2------------2-----------|
|------------2p-0--3--------------------------------------------------|

|----------2--2--|
|----------3--3--|
|----------2--2--|
|----------------|
|p2-0-----(0)----|
|-----3-2--------|
Tap to rate this tab
# A B C D E F G H I J K L M N O P Q R S T U V W X Y Z