Song name
# A B C D E F G H I J K L M N O P Q R S T U V W X Y Z

Dying Fetus - Wretched Flesh Consumption tab

band; dying fetus
song; wretched flesh consumption
tuning from low to high c#,f#,b,e,g#,c#
tabber; ben chaffins
dying fetus rules their up there with cannibal corpse and hate eternal
and suffocation
anyway here is what ive got
in standard so its easier to read

on the last chord let ring for a little bit
e----------------------------------------------------------------------------|
b----------------------------------------------------------------------------|
g----------------------------------------------------------------------------|
d--------------------------------------------------------------------------3-|
a-2-5-4-3-2-5-4-3-2-5-4-3-2-5-4-3-4-3-33333333-4-3-33333333-4-3-333333-4-3-3-|
e-0-3-2-1-0-3-2-1-0-3-2-1-0-3-2-1-2-1-11111111-2-1-11111111-2-1-111111-2-1-1-|
  . . . . . . . . . . . . . . . . . .          . .          . .        . .

play this here below 4 times
e---------------------------------------------------|
b---------------------------------------------------|
g---------------------------------------------------|
d------7/6-----7/8------8/7-----6/7-----------------|
a------5/4-----5/6------6/5-----4/5-2-2-2-2-2-2-2-2-|
e-0000-----000------000-----000-----0-0-0-0-0-0-0-0-|
  ....     ...      ...     ...     . . . . . . . .

then play this here below 4 times
e-------------------------|
b-------------------------|
g-------------------------|
d-------------------------|
a-2-2-2-2-2-2-2-2-3---3---|
e-0-0-0-0-0-0-0-0-1---1---|
  . . . . . . . .
Tap to rate this tab
# A B C D E F G H I J K L M N O P Q R S T U V W X Y Z