Song name
# A B C D E F G H I J K L M N O P Q R S T U V W X Y Z

Dying Fetus - Streaks Of Blood tab

Band: Dying Fetus
Album: Grotesque Impalement
Song: Streaks Of Blood (Baphomet cover)

Tuning: Drop C - (Low to High) C G C F A D
This song is originally tuned to C# (a step and a half down) (Low to High)
C# F# B E G# C# but I awhile back I figured I'd play it in Drop C 
because I was too lazy to retune my guitar, and I also prefer to play 
drop tuning power chords. This is the same song and same notes, just 
transposed from C# to Drop C, which makes it easier in some parts and 
more difficult in others, and it took me awhile to transpose but wasn't 
hard because I went off a different tab.

Credit for the song goes to Tom Frost, Dave Graiglow, Gary Schipani
& Rick Breier of Baphomet, & to John Gallagher, Jason Netherton, John Voyles
& Kevin Talley of Dying Fetus, because this is the Dying Fetus version.
(Don't know if there is any differences between the two versions, but, oh well.)

Credit for tabbing goes to the person who tabbed it out...

http://tabs.ultimate-guitar.com/d/dying_fetus/streaks_of_blood_tab.htm

Credit also goes to the fellow in these video...

http://www.youtube.com/watch?v=ynr4daSmOTo&feature=related

If it wasn't for the above mentioned links I wouldn't have been able to tab 
this out. So thank you gentlemen.

I do not own the rights to this song and I did not write this song.
It's a very kick ass song by a very kick ass band. Enjoy.

Intro:
|-----------------|
|-----------------|
|-----------------|
|-3---------------|
|-1----14---2---1-|
|------14---2---1-|
       .

|--------------------|
|--------------------|
|--------------------|
|----3---------------|
|-1--1----14---2---1-|
|-1-------14---2---1-|
  .       .
 
|-----------------|
|-----------------|
|-----------------| (x2)
|-3---------------|
|-1----14---2---1-| 
|------14---2---1-|     
       .

|------|
|------|
|------|
|------|
|-/13\-|
|-/13\-|
 
|---------------------------------|
|---------------------------------|
|---------------------------------| (x8)
|---------------------------------|
|-1-1-1-1-3-1-1-1-1-1-1-1-4/6-4/7-|
|-1-1-1-1-3-1-1-1-1-1-1-1-4/6-4/7-|
  . . . . . . . . . . . .
 
|-------------|
|-------------|
|-------------| (x2)
|-3-----------|
|-1----14---2-|
|------14---2-|
       .

|----------------------------------|
|----------------------------------|
|----------------------------------| (x4)
|----------------------------------|
|-1--2------------3--7-------------|
|-11121111111111113117111111111111-|
   .. ............ .. ............

|-----------------|
|-----------------|
|-----------------| (x12)
|-----------------|
|-----------3---7-|
|-111121111-3-1-7-|
  .........   .
 
|----------|
|----------|
|----------| (x4)
|----------|
|-11-22-44-|
|-11-22-44-|
 
|----------------------------------|
|----------------------------------|
|----------------------------------| (x4)
|----------------------------------|
|----------------------------------|
|-11111111111111112222222255554444-|
  ................................

|------------------|
|------------------|
|------------------| (x10)
|------------------|
|-3-5-3-4-6-33-6-7-|
|-3-5-3-4-6-33-6-7-|
  . . . . . .. .

|----------------------------------|
|----------------------------------|
|----------------------------------| (x4)
|----------------------------------|
|-1--2------------3--7-------------|
|-11121111111111113117111111111111-|
   .. ............ .. ............

|------|
|------|
|------|
|------|
|-/13\-|
|-/13\-|

|-----------------|
|-----------------|
|-----------------| (x8)
|-----------------|
|-----------3---7-|
|-111121111-3-1-7-|
  .........   .

|--------------|
|--------------|
|--------------| (x6)
|--------------|
|----------2-2-|
|-11112111-2-2-|
  ........ . .

|-------------|
|-------------|
|-------------| (x4)
|-------------|
|-6666769-2-2-|
|---------2-2-|
  ....... . .

|--------------|
|--------------|
|--------------| (x4)
|--------------|
|----------2-2-|
|-11112111-2-2-|
  ........ . .

|-------------|
|-------------|
|-------------| (x4)
|-------------|
|-6666531-2-2-|
|---------2-2-|
  ....... . .

|--------------------------|
|--------------------------|
|--------------------------| (x4)
|--------------------------|
|-1-1-2-1------------------|
|-1-1-2-1-4444333344446666-|
  . . . . ................

|-----------|
|-----------|
|-----------| (x10)
|-----------|
|-4-3-4-6qb-|
|-4-3-4-6qb-|
  . . .

|-----------------------------|
|-----------------------------|
|-----------------------------|
|-----------------------------|
|-1-------1---pick-slide-h11\-|
|-1-------1---pick-slide-h13\-|
 
|---------------------------------|
|---------------------------------|
|---------------------------------| (x8)
|---------------------------------|
|-1-1-1-1-3-1-1-1-1-1-1-1-4/6-4/7-|
|-1-1-1-1-3-1-1-1-1-1-1-1-4/6-4/7-|
  . . . . . . . . . . . .

|----------------------------|
|----------------------------|
|----------------------------|
|----------------------------|
|-1-1-2----------------------|
|-1-1-2-11114444333344446666-|
  . . . ....................

|------------------|
|------------------|
|------------------| (x14)
|------------------|
|-3-5-3-4-6-33-6-7-|
|-3-5-3-4-6-33-6-7-|
  . . . . . .. .

Key:
. - Palm Mute
/ or \ - Slide
qb - Quarter Bend
Tap to rate this tab
 
# A B C D E F G H I J K L M N O P Q R S T U V W X Y Z