Song name
# A B C D E F G H I J K L M N O P Q R S T U V W X Y Z

Dying Fetus - Reduced To Slavery tab

--- D Y I N G   F E T U S ---
                             "Reduced To Slavery
                     From album: "Destroy the Opposition"
                     

                            TABULATURE LEGEND:
                   " - tremolo             h - hammer on           
                   ~ - vibrato             \ - slide down
                   p - pull off            / - slide down
                  tr - trill               ^ - pinch harmonics     
                   = - sustained note      b - bend string         
                p.m. - palm muting         t - tapping
                           <> - natural harmonic

TUNING: C# [C#,F#,B,e,g#,c#]

[Intro]            [Riff 1 (x4)]
-|----------------|--------------------------------------------|
-|----------------|--------------------------------------------|
-|----------------|--------------------------------------------|
-|----------------|-2--3-2-0-2-------2--3-2-^------------------|
-|-5-4---5-4---5--|------------3-2----------3~-5-4---5-4---5-4-|
-|-3-2-0-3-2-0-3--|----------------3-----------3-2-0-3-2-0-3-2-|
   . . . . . . .   tr.......................   . . . . . . . .

[Bass solo (x2)]
-|---------------------------------|---------------------------------|
-|---------------------------------|---------------------------------|
-|-------------------------7-8-5-7-|-------------------------3---3/5-|
-|-0-3-2-0-6-5-0-2-0-3-2-0---------|-0-3-2-0-6-5-0-2-0-3-2-0---0-----|
 |                                 |                                 |
-|---------------------------------|---------------------------------|
-|---------------------------------|---------------------------------|
-|---------------------------------|---------------------------------|
-|-------------------------9-107-9-|-------------------------5---5/7-|
-|-------------------------7-8-5-7-|-------------------------3---3/5-|
-|---------------------------------|---------------------------0-----|

[Riff 2(x4)]
-|---------------------------------|---------------------------------|
-|---------------------------------|---------------------------------|
-|---------------------------------|---------------------------------|
-|-------------------------9-107-9-|-------------------------5---5/7-|
-|---5-4---8-7---4---5-4---7-8-5-7-|---5-4---8-7---4---5-4---3---3/5-|
-|-0-3-2-0-6-5-0-2-0-3-2-0---------|-0-3-2-0-6-5-0-2-0-3-2-0---0-----|
   . . . . . . . . . . . . . . . .   . . . . . . . . . . . .   .

[Riff 3 (x2)]
-|--------------------------------|------------------------------|
-|--------------------------------|------------------------------|
-|--------------------------------|------------------------------|
-|-----^-^------------------------|-----^-^----------------------|
-|-----2/3-4-3-4-3-8\7---7----7\6-|-----2/3-4-3-4-3-8----7----6--|
-|-000-----2-1-2-1-6\5-0-5--0-5\4-|-000-----2-1-2-1-6--0-5--0-4--|
   ...     . . . .     .    .       ...     . . . .    .    .

[Riff 4 (x2)]
-|---------------------------------|-[ending 1]---------------------|
-|---------------------------------|--------------------------------|
-|---------------------------------|--------------------------------|
-|---------------------------------|--------------------------------|
-|---------------------------------|-----------------3/6---6----6\5-|
-|-000-000-0-000-0-000-0-0-0-0-0-0-|-000-000-0-000-0-1/4-0-4--0-4\3-|
   ... ... . ... . ... . . . . . .   ... ... . ... .     .    .

|-[ending 2]-------------------|
|------------------------------|
|------------------------------|
|------------------------------|
|-----------------3----6----6--|
|-000-000-0-000-0-1--0-4--0-4--|
  ... ... . ... .    .    .

[Riff 5 (x2)]
-|---------------------------------|-[ending 1]---------------------|
-|---------------------------------|--------------------------------|
-|---------------------------------|--------------------------------|
-|---------------------------------|--------------------------------|
-|-2-2-2-2-2-2-2-2-2-2-2-2-2-3-3-3-|-2-2-2-2-2-2-2-2-3/6---6----6\5-|
-|-0-0-0-0-0-0-0-0-0-0-0-0-0-1-1-1-|-0-0-0-0-0-0-0-0-1/4-0-4--0-4\3-|
   . . . . . . . . . . . . . . . .   . . . . . . . .     .    .

|-[ending 2]-------------------|
|------------------------------|
|------------------------------|
|------------------------------|
|-2-2-2-2-2-2-2-2-3----6----6--|
|-0-0-0-0-0-0-0-0-1--0-4--0-4--|
  . . . . . . . .    .    .

[RIFF 3 (x2)] [RIFF 4 (x2)] [RIFF 5 (x2)]

[Riff 6 (x4)]
-|---------------------------------|---------------------------------|
-|---------------------------------|---------------------------------|
-|---------------------------------|---------------------------------|
-|-------------------6-------------|-------------------6-------------|
-|---------1-------7-4-7-6-7-8-7-6-|---------1---------4-7-----6-5---|
-|-111-2-1---2-1-2-5---5-4-5-6-5-4-|-111-2-1---2-1-2-0---5---0-4-3---|
   ... . . . . . . . . . . . . . .   ... . . . . . . . .     . .

[Riff 7 (x4)]
-|-------------------------------------------------|
-|-------------------------------------------------|
-|----------------2--------------------------------|
-|----------2-3-2------------------------------5-4-|
-|---3-----------------6-------3-------5-6-5-6-3-2-|
-|-1---0---------------4-0-0-0-1-0-0-0-3-4-3-4-----|
  tr...................  . . .   . . . . . . .

[Riff 8 (x2)]
-|------------------------[ending 1]----------|  |-[ending 2]--------|
-|--------------------------------------------|  |-------------------|
-|--------------------------------------------|  |-------------------|
-|--------------------------------------------|  |-------------------|
-|-5-6-5-6-3tr6-2tr5------6---------3---------|  |-3tr6-2tr5-6-5-3-2-|
-|-3-4-3-4-----------[x3]-4-000-0-0-1-000-0-0-|  |-----------8-7-5-4-|
   . . . .                  ... . .   ... . .                . . . .

[Riff 9]
-|---------------------------------|---------------------------------|
-|---------------------------------|---------------------------------|
-|---------------------------------|---------------------------------|
-|---------------------------------|-------------------------3-4-3-5-|
-|-6-5-8---6-5-8-------------------|-6-5-8---6-5-8-----------1-2-1-3-|
-|-4-3-6---4-3-6---0-0-0-0-000-000-|-4-3-6---4-3-6---000-000---------|
   . .     . .     . . . . ... ...   . .     . .     ... ... . . . .

[Outro]
-|---------------------------------|-----------------|----------|
-|---------------------------------|-----------------|--/Break/-|
-|---------------------------------|-----------------|----------|
-|---------------------------------|-----------------|----------|
-|-6-5-8---6-5-8-------------------|-6-5-8---6-5-8---|----------|
-|-4-3-6---4-3-6---0-0-0-0-000-000-|-4-3-6---4-3-6---|----------|
   . .     . .     . . . . ... ...   . .     . .

[RIFF 9 (x4)]

END OF SONG
Tap to rate this tab
 
# A B C D E F G H I J K L M N O P Q R S T U V W X Y Z