Song name
# A B C D E F G H I J K L M N O P Q R S T U V W X Y Z

Dying Fetus - Skum Fuck The Weak tab

Band: Dying Fetus
Album: Puritification though the violence
Song:  Scum ( fuck the weak)



.  - palm mute           /  - slide up to
\  - slide down to       ~  - vibrato
h  - hammer on           b  - Bend
p  - pull off            Suffixes for bend
t  - tap                 f  - full bend    h - half bend
ph - pinched harmonic    q  - quarter bend t - tap bend
*  - see comment         ^  - Hold bend    r release bend
x  - Stuccatto           ~  - vibrato bend
,  - slight palm mute    () - ghost note, sustained note
"  - tremolo note        <> - Trill

Tuning C#


Riff 1
|---|------------------------------------------------|
|---|------------------------------------------------|
|---|---------------------------------------------ph-|
|---|----------------------------------------------3-|
|---|-2-2-2-2-3--2-2-2-2-6\5-5--2-2-2-2-3--2-2-2-2---|
|-\-|-0-0-0-0-1--0-0-0-0-4\3-3--0-0-0-0-1--0-0-0-0---|
      . . . .    . . . .        . . . .    . . . .



Riff 2a     | Riff 2b   |Riff 2a    |Riff 2b     Last time
|-----------|-----------|-----------|-----------|------------|
|-----------|-----------|-----------|-----------|------------|
|-----------|-----------|-----------|-----------|------------|
|-----------|-----------|-----------|-----------|---------ph-|
|-2-5-4-2-8-|-2-5-4-2-3-|-2-5-4-2-8-|-2-5-4-2-3-|-2-5-4-2-3--|
|-0-3-2-0-6-|-0-3-2-0-1-|-0-3-2-0-6-|-0-3-2-0-1-|-0-3-2-0----|


Riff 1
|---|------------------------------------------------|
|---|------------------------------------------------|
|---|---------------------------------------------ph-|
|---|----------------------------------------------3-|
|---|-2-2-2-2-3--2-2-2-2-6\5-5--2-2-2-2-3--2-2-2-2---|
|-\-|-0-0-0-0-1--0-0-0-0-4\3-3--0-0-0-0-1--0-0-0-0---|
      . . . .    . . . .        . . . .    . . . .



Riff 3a  3b      3a      3b
|-------|-------|-------|-------|
|-------|-------|-------|-------|
|-------|-------|-------|-------|
|-----3-|-----5-|-----3-|-----5-|
|-2-3-1-|-2-3-3-|-2-3-1-|-2-3-3-|
|-0-1---|-0-1---|-0-1---|-0-1---|
  . .     . .     . .     . .


Riff 4 ( only Guitar 1 first time)
|-----------------------------------------------------------------------------|
|-----------------------------------------------------------------------------|
|-----------------------------------------------------------------------------|
|-----------------------------------------------------------------------------|
|-----------------------------------------------------------------------33223-|
|-0000-1p0-0000-3p0-0000-5p0-0000-66556-0000-1p0-0000-3p0-0000-5p0-0000-------|


Riff 5
|------------------------------------------------------------|
|------------------------------------------------------------|
|------------------------------------------------------------|
|------------------------------------------------------------|
|-----5\3-2-5-----7-----8-7-8------5\3-2-5-----7-----10-9-10-|
|-0-0-3\1-0-3-0-0-5-0-0-6-5-6--0-0-3\1-0-3-0-0-5-0-0-8--7-8--|
  . .     .   . .   . .        . .     .   . .   . .



Riff 3a  3b      3a      3b
|-------|-------|-------|-------|
|-------|-------|-------|-------|
|-------|-------|-------|-------|
|-----3-|-----5-|-----3-|-----5-|
|-2-3-1-|-2-3-3-|-2-3-1-|-2-3-3-|
|-0-1---|-0-1---|-0-1---|-0-1---|
  . .     . .     . .     . .

End.
Tap to rate this tab
# A B C D E F G H I J K L M N O P Q R S T U V W X Y Z