Guitaretab - guitar tabs
Song name
# A B C D E F G H I J K L M N O P Q R S T U V W X Y Z

Dying Fetus - Born In A Casket tab

Tabbed by Jordan (Ghstmotograter6@Hotmail.com)

Hope you like the song , it was pretty easy.
[ Tab from: http://www.guitaretab.com/d/dying-fetus/47490.html ]
E----------------------------------------------
B----------------------------------------------
G----------------------------------------------
D--2\-2223\-3332\-2223\-333--------------------
A--2\-2223\-3332\-2223\-333-Repeat-(16x)-------
E--0\-0003\-3330\-0001\-111--------------------

E----------------------------------------------
B----------------------------------------------
G----------------------------------------------
D--7xxxx-7/5xxxx-5/7xxxx-7-2-------------------
A--7xxxx-7/5xxxx-5/7xxxx-7-2-------------------
E--5xxxx-5/3xxxx-3/5xxxx-5-0-------------------
Related for Born In A Casket tab
×
Born In A Casket