Song name
# A B C D E F G H I J K L M N O P Q R S T U V W X Y Z

Dying Fetus - Your Blood Is My Wine tab

my first tab

ur blood is my wine
dying fetus
tuning: EADGBE(its probably 2 steps down or something but it sounds close enough in standard tuning)

*=pinch harmonic
e---------------------------------------------------------------------|
b---------------------------------------------------------------------|
g---------------------------------------------------------------------|
d----------2-----------------2----------------------------------------|
a----------2-----------------2----------------------------------------|
e-000-0-0--0-0-0-0--000-0-0--0-0-0-0--000-0-2-3-4-3-2-333-3-3-3-5-4-3-|
all p.muted besides the chords
    ^repeat how ever many times then do this:
d-----------------------|
a-----------------------|
e-0-2-3-4-3-2-3---5-4-3-|
all p.muted

then this riff
e--------------------------------------------------------------------|
b--------------------------------------------------------------------|
g-------------------------------------------------5h7p5---5-------*5-|
d---------*5h6p5------------------------*5h6p5----------7---7-5------|
a-----5-7------------4-5--3-4-------5-7-------------------------7----|
e-5-7------------0-0-2-3--1-2---5-7-----------0-0--------------------|
  . . . .        . . . .  . .   . . . .                         .
^play however many times...then...

d-567--------------543----------|
a-----567----X3-------543-------|
e---------7-5-------------0-0-3-|
  ... ... . .      ...... . .

then play...

d--------------------------|
a----------------------5/4-|
e-0-0-*3-0-0-*3-0-0-*3-3/2-|
^repeat however many times then

A-3-3--2-22-2-22-3-3-7-6-4-2-|
E-1-1--0-00-0-00-1-1-5-4-3-0-|
      . .. .  ..
^play however many times

and thats all ive figured out, its my first tab so rate it please:)
Tap to rate this tab
 
# A B C D E F G H I J K L M N O P Q R S T U V W X Y Z